tablaturas, partituras y acordes para guitarra
Busca por banda/artista:
 
y/o título de la canción:
A B C D E F G H I J K L M N O P Q R S T U V W X Y Z 0 1 2 3 4 5 6 7 8 9 / Top 100 tabs
Categorías
Usuarios
usuario:
Darse de alta
password:
Artistas más visitados
Publicidad
TOP acordes y tablaturas de Elvis presley


Estás en: Inicio > Letra E > Acordes y tablaturas de Elvis presley > You'll never walk alone
You'll never walk alone
de Elvis presley
Puntúa este acorde/tab:      
(0.5/5)
Reportar este acorde/tab
  Añadir a tus favoritos
  Imprimir
Tom: C
Intro:
     C                 Dm7/C             C                 C/G
e |  | -----------0-----------------1-----------------0-----------------0-------- |  | 
B |  | --------1-----1-----------1-----1-----------1-----1-----------1-----1----- |  | 
G |  | -----0-----------0-----2-----------2-----0-----------0-----0-----------0-- |  | 
D |  | -------------------------------------------------------------------------- |  | 
A |  | --3-----------------3-----------------3----------------------------------- |  | 
E |  | --------------------------------------------------------3----------------- |  | 
    C                       Am              G
    When you walk through a storm hold your head up high
        F         C            Dm7   G
    And don't be afraid of the dark.
           F        Bb         F      Dm
    At the end of a storm is a golden sky
            Bb           G         C       C7
    And the sweet silver song of a lark.
         F              G
    Walk on through the wind,
         Am             Dm
    Walk on through the rain,
              C         Em         F       G7
    Tho' your dreams be tossed and blown.
         C        Am      F            Fm
    Walk on, walk on with hope in your heart
               C     Em    G      G7
    And you'll never walk alone,
           C  Am  F         G C
    You'll never, ever walk a-lone.


  G7     C        Am      F            Fm
    Walk on, walk on with hope in your heart
               C     Em    G      G7
    And you'll never walk alone,
           C  Am  F         G C
    You'll never, ever walk a-lone.
Ending:
     C                 Dm7/C             C
e |  | -----------0-----------------1--------0-- |  | 
B |  | --------1-----1-----------1-----1-----1-- |  | 
G |  | -----0-----------0-----2-----------2--0-- |  | 
D |  | --------------------------------------2-- |  | 
A |  | --3-----------------3-----------------3-- |  | 
E |  | ----------------------------------------- |  |  		   
AcordesyTabs.com © 2008 Acordes y Tablaturas para guitarra. Tabs and Chords for guitar. Aviso Legal - Contacto
El uso de este sitio está sujeto a la aceptación de los términos y condiciones (22 usuarios online)