tablaturas, partituras y acordes para guitarra
Busca por banda/artista:
 
y/o título de la canción:
A B C D E F G H I J K L M N O P Q R S T U V W X Y Z 0 1 2 3 4 5 6 7 8 9 / Top 100 tabs
Categorías
Usuarios
usuario:
Darse de alta
password:
Artistas más visitados
Publicidad
TOP acordes y tablaturas de Incubus


Estás en: Inicio > Letra I > Acordes y tablaturas de Incubus > Anti-gravity
Anti-gravity
de Incubus
Puntúa este acorde/tab:      
(0.1/5)
Reportar este acorde/tab
  Añadir a tus favoritos
  Imprimir
(Is a 5-string on the record, tabbed for a 4-string - timing is included)


Guitar plays these two lines twice  (low E string)

E|7-h10---x---7---|x---x---5-h-7---|x---x---2---x---|2-h-5---x---x---|

E|7-h10---x---7---|x---x---5-h-7---|x---x---3---x---|3-h-5---x---x---|

then bass enters:

G|----------------|----------------|----------------|----------------|
D|----------------|----------------|----------------|----------------|
A|----------------|----------------|----------------|----------------|
E|7---------------|----------------|----------------|------------7---|


G|----------------|----------------|----------------|----------------|
D|----------------|----------------|----------------|----------------|
A|----------------|----------------|----------------|----------------|
E|7---------------|----------------|----------------|----------------|


G|----------------|----------------|----------------|----------------|
D|----------------|----------------|----------------|----------------|
A|----------------|----------------|----------------|----------------|
E|7-<<<-8va lower-|----------------|----------------|------------7---|


G|----------------|7-----------7---|----7-------7---|9---9---6-------|
D|------------9---|----9-----------|----------------|----------------|
A|----9-----------|----------------|----------------|----------------|
E|7---------------|----------------|----------------|----------------|


  Play this line 3 times
G|----------------|----------------|----------------|----------------|
D|----------------|----------------|----------------|----------------|
A|------------9---|----------------|----------------|----------------|
E|7---------------|--------5-------|--------5-------|----6-----------|


G|----------------|----------------|----------------|----------------|
D|----------------|----------------|----------------|----------------|
A|------------9---|----------------|--------7---7---|5---5---7---7---|
E|7---------------|--------5-------|----5-----------|----------------|


  Play this line 4 times
G|----------------|----------------|----------------|----------------|
D|----------------|----------------|----------------|----------------|
A|------------9---|----------------|----------------|----------------|
E|7---------------|--------5-------|--------5-------|----6-----------|


G|----------------|----------------|----------------|----------------|
D|----------------|----------------|----------------|----------------|
A|----------------|----------------|----------------|----------------|
E|7-<<<-8va lower-|----------------|----------------|----------------|


G|----------------|----------------|----------------|----------------|
D|----------------|----------------|----------------|----------------|
A|----------------|----------------|--------5--/--12|---------12----|
E|7---7-----------|----------------|----------------|----------------|



VERSE:  "I'm home alone tonight..."


  Play this line 7 times
G|----------------|----------------|----------------|----------------|
D|----------------|----------------|----------------|----------------|
A|------------9---|----------------|----------------|----------------|
E|7---------------|--------5-------|--------5-------|----6-----------|


G|----------------|----------------|----------------|----------------|
D|----------------|----------------|----------------|----------------|
A|------------9---|9---------------|7---------------|7---------------|
E|7---------------|--------5---5---|----5-------5---|----5-----------|


  Play this line 5 times
G|----------------|----------------|----------------|----------------|
D|----------------|----------------|----------------|----------------|
A|------------9---|----------------|----------------|----------------|
E|7---------------|--------5-------|--------5-------|----6-----------|


G|----------------|----------------|----------------|----------------|
D|----------------|----------------|----------------|----------------|
A|------------9---|9---------------|----------------|----------------|
E|7---------------|--------5-------|--------5-------|----6-----------|


G|----------------|----------------|----------------|----------------|
D|----------------|----------------|----------------|----------------|
A|------------9---|----------------|----------------|----------------|
E|7---------------|--------5-------|--------5-------|----6-----------|


G|----------------|----------------|----------------|----------------|
D|----------------|----------------|----------------|----------------|
A|------------9---|9---9-----------|----------------|----------------|
E|7---------------|--------5---5---|--------5-------|----6-----------|



PRE-CHORUS:  "When we get there..."

G|----------------|----------------|----------------|----------------|
D|----------------|----------------|9-------9---9---|--------7-------|
A|7-----------7---|--------7-------|----------------|----------------|
E|----------------|----------------|----------------|----------------|


G|----------------|----------------|----------------|----------------|
D|----------------|----------------|4-----------7---|--------4-------|
A|5-----------5---|--------5---5---|----------------|------------5---|
E|----------------|----------------|----------------|----------------|


G|----------------|----------------|----------------|----------------|
D|----------------|----------------|----------------|----------------|
A|----------------|----------------|----------------|----------------|
E|6-----------6---|--------6-------|--------6-------|6-----------6---|


G|----------------|----------------|----------------|----------------|
D|----------------|----------------|----------------|----------------|
A|----------------|----------------|10------10--10--|10--10--10------|
E|7-----------7---|--------7-------|----------------|----------------|


G|----------------|----------------|9---------------|9---------------|
D|----------------|------------9---|----9-------9---|----9-----------|
A|7-----------7---|--------7-------|--------7-------|--------7-------|
E|----------------|----------------|----------------|----------------|


G|----------------|----------------|----------------|----------------|
D|----------------|----------------|7-------7---4---|--------4-------|
A|5-----------5---|--------5---5---|----------------|------------5---|
E|----------------|----------------|----------------|----------------|


G|----------------|----------------|----------------|----------------|
D|----------------|----------------|----------------|----------------|
A|----------------|----------------|----------------|----------------|
E|6-----------6---|--------6-------|--------6-------|6-----------6---|


G|----------------|----------------|----------------|----------------|
D|----------------|----------------|----------------|----------------|
A|----------------|----------------|----------------|12-------------|
E|7-------7-------|7-------7-------|7-------7-------|----------------|



CHORUS:  "Antigravity..."

  Play this line 3 times
G|----------------|----------------|----------------|----------------|
D|----------------|----------------|----------------|----------------|
A|------------9---|----------------|----------------|----------------|
E|7---------------|--------5-------|--------5-------|----6-----------|


G|----------------|----------------|----------------|----------------|
D|----------------|----------------|----------------|----------------|
A|------------9---|----------------|--------7---7---|5---5---7---7---|
E|7---------------|--------5-------|----5-----------|----------------|


  Play this line 4 times
G|----------------|----------------|----------------|----------------|
D|----------------|----------------|----------------|----------------|
A|------------9---|----------------|----------------|----------------|
E|7---------------|--------5-------|--------5-------|----6-----------|



PRE-VERSE:

G|----------------|----------------|----------------|----------------|
D|----------------|----------------|----------------|----------------|
A|----------------|----------------|----------------|----------------|
E|3-----------3---|--------3-------|--------3-------|3-------3---x---|


G|----------------|----------------|----------------|----------------|
D|----------------|----------------|----------------|----------------|
A|----------------|----------------|----------------|----------------|
E|2-----------0---|--------2----/--|10--------------|9---------------|


G|----------------|----------------|----------------|----------------|
D|----------------|----------------|----------------|----------------|
A|----------------|----------------|----------------|12-------------|
E|7---7-------7---|----7---7-------|7---------------|----------------|



VERSE:  "For years I kept to myself..."

  Play seven times
G|----------------|----------------|----------------|----------------|
D|----------------|----------------|----------------|----------------|
A|------------9---|----------------|----------------|----------------|
E|7---------------|--------5-------|--------5-------|----6-----------|


G|----------------|----------------|----------------|----------------|
D|----------------|----------------|----------------|----------------|
A|------------9---|9---------------|7---------------|7---------------|
E|7---------------|--------5-------|----5-------5---|----5-----------|


  Play eight times
G|----------------|----------------|----------------|----------------|
D|----------------|----------------|----------------|----------------|
A|------------9---|----------------|----------------|----------------|
E|7---------------|--------5-------|--------5-------|----6-----------|



PRE-CHORUS:  "When we get there..."


G|----------------|----------------|----------------|----------------|
D|----------------|----------------|9-------9---9---|--------7-------|
A|7-----------7---|--------7-------|----------------|------------4---|
E|----------------|----------------|----------------|----------------|


G|----------------|----------------|----------------|----------------|
D|----------------|----------------|4-------4---7---|--------4-------|
A|5-----------5---|--------5---5---|----------------|------------5---|
E|----------------|----------------|----------------|----------------|


G|----------------|----------------|----------------|----------------|
D|----------------|----------------|----------------|----------------|
A|----------------|----------------|----------------|----------------|
E|6-----------6---|--------6-------|--------6-------|6-------6---6---|


G|----------------|----------------|----------------|----------------|
D|----------------|----------------|----------------|----------------|
A|----------------|----------------|10------10--10--|10--10--10------|
E|7-----------7---|--------7-------|----------------|----------------|


G|----------------|----------------|9---------------|9---------------|
D|----------------|------------9---|----9-------9---|----9-----------|
A|7-----------7---|--------7-------|--------7-------|--------7-------|
E|----------------|----------------|----------------|----------------|


G|----------------|----------------|----------------|----------------|
D|----------------|----------------|7-------7---4---|--------4-------|
A|5-----------5---|--------5---5---|----------------|------------5---|
E|----------------|----------------|----------------|----------------|


G|----------------|----------------|----------------|----------------|
D|----------------|----------------|----------------|----------------|
A|----------------|----------------|----------------|----------------|
E|6-----------6---|--------6-------|--------6-------|6-------6---6---|


G|----------------|----------------|----------------|----------------|
D|----------------|----------------|----------------|----------------|
A|----------------|----------------|----------------|12-------------|
E|7-------7-------|7-------7-------|7-------7-------|----------------|



CHORUS:  "Antigravity..."

  Play this line 3 times
G|----------------|----------------|----------------|----------------|
D|----------------|----------------|----------------|----------------|
A|------------9---|----------------|----------------|----------------|
E|7---------------|--------5-------|--------5-------|----6-----------|


G|----------------|----------------|----------------|----------------|
D|----------------|----------------|----------------|----------------|
A|------------9---|----------------|--------7---7---|5---5---7---7---|
E|7---------------|--------5-------|----5-----------|----------------|


  Play this line 4 times
G|----------------|----------------|----------------|----------------|
D|----------------|----------------|----------------|----------------|
A|------------9---|----------------|----------------|----------------|
E|7---------------|--------5-------|--------5-------|----6-----------|



INTERLUDE:

G|----------------|----------------|----------------|----------------|
D|----------------|----------------|----------------|----------------|
A|----------------|----------------|----------------|----------------|
E|3-----------3---|--------3-------|--------3-------|3-------3---3---|


G|----------------|----------------|----------------|----------------|
D|----------------|----------------|----------------|----------------|
A|----------------|----------------|----------------|----------------|
E|2-----------0---|--------2----/--|10--------------|9---------------|


 Play this line three times
G|----------------|----------------|----------------|----------------|
D|----------------|----------------|----------------|----------------|
A|----------------|----------------|----------------|----------------|
E|7---7-------7---|----7---7-------|7---------------|----------------|


G|----------------|----------------|----------------|----------------|
D|----------------|----------------|--------9---9---|9-------9-------|
A|----------------|----------------|----------------|------------9---|
E|7---7-------7---|----7---7-------|7---------------|----------------|


 Play this line three times
G|----------------|----------------|----------------|----------------|
D|----------------|----------------|----------------|----------------|
A|------------9---|9---------------|----------------|----------------|
E|7---------------|--------5-------|--------5-------|----6-----------|


G|----------------|----------------|----------------|----------------|
D|----------------|----------------|----------------|7---7---9-------|
A|------------9---|9---------------|7---7---10--10--|----------------|
E|7---------------|--------5-------|----------------|----------------|


 Play this line three times
G|----------------|----------------|----------------|----------------|
D|----------------|----------------|----------------|----------------|
A|------------9---|9---------------|----------------|----------------|
E|7---------------|--------5-------|--------5-------|----6-----------|


G|----------------|----------------|----------------|----------------|
D|----------------|----------------|----------------|----7-----------|
A|------------9---|9---------------|--------7-------|7-------7-------|
E|7---------------|--------5-------|----5-----------|----------------|


G|----------------|----------------|----------------|----------------|
D|----------------|----------------|9-------9---9---|--------7-------|
A|7-----------7---|--------7-------|----------------|------------4---|
E|----------------|----------------|----------------|----------------|


G|----------------|----------------|----------------|----------------|
D|----------------|----------------|4-------4---7---|--------4-------|
A|5-----------5---|--------5---5---|----------------|------------5---|
E|----------------|----------------|----------------|----------------|


G|----------------|----------------|----------------|----------------|
D|----------------|----------------|----------------|----------------|
A|----------------|----------------|----------------|----------------|
E|6-----------6---|--------6-------|--------6-------|6-------6---6---|


G|----------------|----------------|----------------|----------------|
D|----------------|----------------|----------------|----------------|
A|----------------|----------------|10------10--10--|9-------9---9---|
E|7-----------7---|--------7-------|----------------|----------------|


G|----------------|----------------|9---------------|9---------------|
D|----------------|------------9---|----9-------9---|----9-----------|
A|7-----------7---|--------7-------|--------7-------|--------7-------|
E|----------------|----------------|----------------|----------------|


G|----------------|----------------|----------------|----------------|
D|----------------|----------------|7-------7---4---|----------------|
A|5-----------5---|--------5-------|----------------|--------5---5---|
E|----------------|----------------|----------------|----------------|


G|----------------|----------------|----------------|----------------|
D|----------------|----------------|----------------|----------------|
A|----------------|----------------|----------------|----------------|
E|6-----------6---|--------6-------|--------6-------|6-------6---6---|


G|----------------|----------------|----------------|----------------|
D|----------------|----------------|----------------|----------------|
A|----------------|----------------|----------------|12-------------|
E|7---7-------7---|----7---7-------|7---------------|----------------|



CHORUS:  "Antigravity..."

  Play this line 3 times
G|----------------|----------------|----------------|----------------|
D|----------------|----------------|----------------|----------------|
A|------------9---|----------------|----------------|----------------|
E|7---------------|--------5-------|--------5-------|----6-----------|


G|----------------|----------------|----------------|----------------|
D|----------------|----------------|----------------|----------------|
A|------------9---|9---------------|--------5-------|----5-----------|
E|7---------------|--------5-------|----------------|----------------|


  Play this line 4 times
G|----------------|----------------|----------------|----------------|
D|----------------|----------------|----------------|----------------|
A|------------9---|----------------|----------------|----------------|
E|7---------------|--------5-------|--------5-------|----6-----------|



OUTRO:

G|----------------|----------------|----------------|----------------|
D|----------------|----------------|----------------|----------------|
A|----------------|----------------|----------------|----------------|
E|3---------------|----------------|----------------|----------------|


G|----------------|----------------|----------------|----------------|
D|----------------|----------------|----------------|----------------|
A|----------------|----------------|----------------|----------------|
E|2-----------0---|--------2----/--|10--------------|9---------------|

ad lib...

G|----------------|----------------|----------------|----------------|
D|----------------|----------------|----------------|----------------|
A|----------------|----------------|----------------|----------------|
E|----------------|--------7-------|----------------|----------------|		   
AcordesyTabs.com © 2008 Acordes y Tablaturas para guitarra. Tabs and Chords for guitar. Aviso Legal - Contacto
El uso de este sitio está sujeto a la aceptación de los términos y condiciones (27 usuarios online)