tablaturas, partituras y acordes para guitarra
Busca por banda/artista:
 
y/o título de la canción:
A B C D E F G H I J K L M N O P Q R S T U V W X Y Z 0 1 2 3 4 5 6 7 8 9 / Top 100 tabs
Categorías
Usuarios
usuario:
Darse de alta
password:
Artistas más visitados
Publicidad
TOP acordes y tablaturas de Incubus


Estás en: Inicio > Letra I > Acordes y tablaturas de Incubus > Blood on the ground
Blood on the ground
de Incubus
Puntúa este acorde/tab:      
(0.1/5)
Reportar este acorde/tab
  Añadir a tus favoritos
  Imprimir
Morning View

3x then.......................play this (chrous and intro)
G||------------------------|---------------------|
D||------------------------|---------------------|
A||-------------2-2--------|---------------------|
D||--0-0-0-0-0------3-3-0-0|-5-5-5-5-5-3-3-3-3-3-|

Verse x5 then play this a couple timers till u get to time 1:23 then
G||-------------|---------------------|
D||-------------|---------------------|
A||-------------|---------------------|
D||-x-x-12/0----|-0-7-5-3-0-7-5-3-----|
    T T T (just for the hell of it, slap it, sounds tighter)
G||------------------------|
D||------------------------|
A||------------------------|
D||-9-9-9-5-5-5-3-3-3-3-3-3|

play this riff only at 2:50 and 4:07
G||------------------------|---------------------|
D||------------------------|---------------------|
A||-------------2-2--------|---------------------|
D||--0-0-0-0-0------3-3-0-0|-0-0-0-0-0-3-3-3-3-3-|

Little Breakdown Part
G||------------------------------------|
D||------------------------------------|
A||------------------------------------|
D||--0-0-0-0-0-0-5-5-5-5/17-17-17-17-17|		   
AcordesyTabs.com © 2008 Acordes y Tablaturas para guitarra. Tabs and Chords for guitar. Aviso Legal - Contacto
El uso de este sitio está sujeto a la aceptación de los términos y condiciones (31 usuarios online)