tablaturas, partituras y acordes para guitarra
Busca por banda/artista:
 
y/o título de la canción:
A B C D E F G H I J K L M N O P Q R S T U V W X Y Z 0 1 2 3 4 5 6 7 8 9 / Top 100 tabs
Categorías
Usuarios
usuario:
Darse de alta
password:
Artistas más visitados
Publicidad
TOP acordes y tablaturas de Incubus


Redefine
de Incubus
Puntúa este acorde/tab:      
(0.1/5)
Reportar este acorde/tab
  Añadir a tus favoritos
  Imprimir
Tuning: Eb, A, D, G

I say Eb because my E string is a piece of **** and never stays in tune

Key
T = triplet (ex. 3T = -333-)
s = slap
. = pop
h = hammer on


Intro (come in with drums) 
G |-----------------|
D |-----------------|
A |-----------------|
Eb|--3T---3T----3T--|



Pre-chorus  (x1)
G |------------------|
D |------------------|
A |------------------|
Eb|--3-3-3-3--6-6-6-6|


Chorus (x3)                           
G |--------------------------|        
D |------------------2-------|       
A |---2---2---2T---2---2---2-|        
Eb|-3-------3----3-------3---|        


Pre-chorus (x1)

Chorus (x3)

Fill note
Eb|-3-|

Verse A (x2)   
G |-------------------5------------9--------|
D |----------------5--------5h7--7---7------|
A |--5-------3-3-----------------------6----|
Eb|-----------------------------------------|

Verse B (x1)
G |-------------------5-----------9---------|
D |----------------5-------5h7--7---7----8--|
A |--5-------3-3----------------------6-----|
Eb|-----------------------------------------|

Verse A (x2)

Chorus (x3)

Bass Solo (x7) *use an auto wah*
G |------------x-------------x--3--------------3--------------3---|
D |--------x-------------x----------------------------------------|
A |---------------------------------------------------------------|
Eb|--0-x-x---x---x-0-x-x---x---------0-x-x-x-x------0-x-x-x-x-----|
     s s s . s . s s s s . s .  .    s s s s s .    s s s s s .

G |------------x---------3-----x--3--------------3-------------3---|
D |--------x-------------------------------------------------------|
A |----------------------------------------------------------------|
Eb|--0-x-x---x---x-0-x-x---x---------0-x-x-x-x------0-x-x-x-x------|
     s s s . s . s s s s . s   .  .  s s s s s   .  s s s s s  .


Pre-chorus 2 (x2)
G |-----------------------------------------|
D |-----------------------------------------|
A |-----------------------------------------|
Eb|-3-3T--3-3T--3-3T--3-3T--3-3T--3-3T--3-3T|

G |-----------------------|
D |-----------------------|
A |-----------------------|
Eb|--3-3-3T-3T--6-6-6T-6T-|

Then play the chorus till the end		   
AcordesyTabs.com © 2008 Acordes y Tablaturas para guitarra. Tabs and Chords for guitar. Aviso Legal - Contacto
El uso de este sitio está sujeto a la aceptación de los términos y condiciones (45 usuarios online)