tablaturas, partituras y acordes para guitarra
Busca por banda/artista:
 
y/o título de la canción:
A B C D E F G H I J K L M N O P Q R S T U V W X Y Z 0 1 2 3 4 5 6 7 8 9 / Top 100 tabs
Categorías
Usuarios
usuario:
Darse de alta
password:
Artistas más visitados
Publicidad
TOP acordes y tablaturas de Incubus


Estás en: Inicio > Letra I > Acordes y tablaturas de Incubus > Trouble in 421
Trouble in 421
de Incubus
Puntúa este acorde/tab:      
(0.7/5)
Reportar este acorde/tab
  Añadir a tus favoritos
  Imprimir
Tuning: DADG


	0:02 (Slap)
g|------------------------------------------------------------
d|------------------------------------------------------------
a|------------------------------------------------------------
d|-2--2--2--2--2--2--2--2--2--22--2--2------------------------

	0:24 (finger)
g|------------------------------------------------------------
d|------------------------------------------------------------
a|---------8---------8/---------------------------------------
d|-5-5-5-5---5-5-5-5------------------------------------------

	0:40 (finger)
g|------------------------------------------------------------
d|------------------------------------------------------------
a|------------------------------------------------------------
d|-3-4/7-8/9--------------------------------------------------

	0:54 (slap)
g|-----5-----5-----5------^-----------------------------------
d|------------------------6-----------------------------------
a|------------------------------------------------------------
d|-2-2---2-2---2-2----4~--------------------------------------

	1:05 (finger)
g|------------------------------------------------------------
d|---------------------^----------------------^---------------
a|-------5h6p5-------5-6-------5h6p5-------5/11/--------------
d|-2-4h5-------2-4h5-----2-4h5-------2-4h5--------------------

	2:10 (slap)
g|------------------------------------------------------------
d|------------------------------------------------------------
a|---6/2------------------------------------------------------
d|-0-----0-1-0-1-1--------------------------------------------		   
AcordesyTabs.com © 2008 Acordes y Tablaturas para guitarra. Tabs and Chords for guitar. Aviso Legal - Contacto
El uso de este sitio está sujeto a la aceptación de los términos y condiciones (28 usuarios online)