tablaturas, partituras y acordes para guitarra
Busca por banda/artista:
 
y/o título de la canción:
A B C D E F G H I J K L M N O P Q R S T U V W X Y Z 0 1 2 3 4 5 6 7 8 9 / Top 100 tabs
Categorías
Usuarios
usuario:
Darse de alta
password:
Artistas más visitados
Publicidad
TOP acordes y tablaturas de Megadeth


Estás en: Inicio > Letra M > Acordes y tablaturas de Megadeth > No more mr. nice guy
No more mr. nice guy
de Megadeth
Puntúa este acorde/tab:      
(0.4/5)
Reportar este acorde/tab
  Añadir a tus favoritos
  Imprimir
H|-------------------------------------------------------------------|
S|------------------------------------x------------------------------|
T|x-----x-----x-----x-----x-----x-----1-----13-----24--------35------|
B|x-----x-----x-----x-----x-----x--------x------x------1--2------1--2|
                                                                        

                                                                            
                                                                        

                                                                        

                                                                               Beat #1                  4x  Using Cybal Bell                          
H|C--x--x--x--x--x--x--x---||
S|------x-----------x-----*||
T|------------------------*||
B|x-----------x--x---------||
                                                                        

                                               
H|--------------------|
S|--x--x--x--x--x--x--|
T|--------------------|
B|--------------------|
                                                                        

                                                                        
Beat #1 Using Hi-Hat 3x                                                 

                                                                        

                                            
H|--x-----x-----x--------C--|
S|-----------------------x--|
T|--------------------------|
B|--x--x-----x-----1--2-----|
                                                                        

Beat #1 Using Hi-Hat 3x    

                                                                        
                                
H|--x--------x-----------------C--|
S|--x--------x-----x--x--x--x--x--|
T|--------------------------------|
B|-----x--x-----x-----------------|
                                                                        

  Beat #2                    4x      
H|--x--x--x--x--x--x-----x---||
S|-----------x-----------x--*||
T|--------------------------*||
B|-----x--x-----x-----x------||
                                                                        


                                                                                                                                                     
H|------------------------------C--|
S|x--x--x-----x-----x--x--x--x-----|
T|---------------------------------|
B|------------------------------x--|
                                                                        


                                                                        

  Beat #3                                          2x           
H|x-----x-----x-----x-----x-----x-----x-----x------||
S|------x-----------x-----------x-----------x-----*||
T|------------------------------------------------*||
B|x-----------x--x-----x-----x--------x--x-----x---||
                                                                        

                                                                        
H|---------------------------------------------------------------|
S|------------------------------------x--------------------------|
T|x-----x-----x-----x-----x-----x-----1-----13-----24-----35-----|
B|x-----x-----x-----x-----x-----x--------x------x------x------x--|
                                                                        

                                                                        

Beat #2 5x                                               

                                                                        

                                                                        

                                                                         
H|------------------------------------------------C--|
S|x--x--x--x--x--x--x--x-----------------------------|
T|------------------------x--x--x--x--x--x--x--x-----|
B|------------------------------------------------x--|
                                                                        

Beat #3 3x                                                           

                                                                        

                                                                        
H|--------------------------|
S|--x--x--x--x--x--x--x--x--|
T|--------------------------|
B|--------------------------|
                                                                        

Beat #1 5x              


                                                                        
                         
H|--C--------C--------C--------C--------C--|
S|--x--------x--------x--------x--------x--|
T|-----------------------------------------|
B|-----x--x-----x--x-----x--x-----x--x-----|
                                                                        

                                                                                                                                                                                                                        
H|x--x--x--x--x--x--x--x--x--x--x--x--x--x--x--x--x--x--x--x--x--x--x
S|-------------------------------------------------------------------
T|-------------------------------------------------------------------
B|---------------------------------------------x---------------------
                                                                        

                                                                        
H|x--x--x--x--x--x--x--x--x--x--x--x--x--x--x--x--x--x--x--x--x--x--x
S|-------------------------------------------------------------------
T|-------------------------------------------------------------------
B|---------------------x---------------------------------------------
                                                                        

                                                       2x               
H|x--x--x--x--x--x--x--x--x--O--x--O--x--O--x--x--x---||
S|------------------------------------------------x--*||
T|---------------------------------------------------*||
B|x--------------------------x-----x-----x-----x------||
                                                                        


                                                                        
                                                   4x                     
H|x--x--x--x--x--x--x--x--x--x--x--x--x--x--x--x---||
S|---------------------------------------------x--*||
T|------------------------------------------------*||
B|---------------------x---------------------------||
                                                                        

                           4x                                             
H|x--x--x--x--x--x--x--x---||
S|---------------------x--*||
T|------------------------*||
B|---------x---------------||
                                                                        

                                                                        

H|C-----C-------------------------C--|
S|x-----x-------------------------x--|
T|------------13--------24-----------|
B|---x-----x------1--2------1--2-----|
                                                                        

Beat #3 4x                                   

                                                                        

                                                                       
                                                           
H|------------------------C--|
S|x--x--x--x--x--x--x--x-----|
T|---------------------------|
B|------------------------x--|
                                                                        

Beat #1 4x                    

                                                                        
                                                                      
H|------------C--C-----C-----C--------------C--C-----C-----C---------
S|x--x--x--x--------------------x--x--x--x-----------------------F---
T|-------------------------------------------------------------------
B|------------x--x-----x-----x--------------x--x-----x-----x--x-----x
                                                                        

                                                                        
H|-------------------------------------------------------------------
S|-------------------------------------------------------------------
T|1--1--1--1--2--2--2--2--3--3--3--3--3--4--------3--4--------3--4---
B|------------------------------------------1--2--------1--2--------1
                                                                        

                                                                         
H|---------------C--|
S|------------------|
T|---3--4-----------|
B|2--------1--2--x--|		   
AcordesyTabs.com © 2008 Acordes y Tablaturas para guitarra. Tabs and Chords for guitar. Aviso Legal - Contacto
El uso de este sitio está sujeto a la aceptación de los términos y condiciones (22 usuarios online)