tablaturas, partituras y acordes para guitarra
Busca por banda/artista:
 
y/o título de la canción:
A B C D E F G H I J K L M N O P Q R S T U V W X Y Z 0 1 2 3 4 5 6 7 8 9 / Top 100 tabs
Categorías
Usuarios
usuario:
Darse de alta
password:
Artistas más visitados
Publicidad
TOP acordes y tablaturas de Jethro tull


Estás en: Inicio > Letra J > Acordes y tablaturas de Jethro tull > A song for jeffery
A song for jeffery
de Jethro tull
Puntúa este acorde/tab:      
(0.3/5)
Reportar este acorde/tab
  Añadir a tus favoritos
  Imprimir
I have no idea what sort of time signature they are using
or how to count this, but the closer the numbers are to each
other, the closer they are played.


INTRO  (on some versions I think he plays barre chords)

G---------------------||  Repeat 10 times
D-5/7--7-7-----7-5-3-*||
A--------------------*||
E---------------------||



BREAK RIFF

G-----------5--3-||   Repeat 4 times
D----5--5--5----*||
A---------------*||
E-3-3--3--3------||

VERSE RIFF

G-----5-5-3--------5-3---------5-5-3------------|| Repeat 2 times
D-----------5----------5-5-----------5---------*||
A----------------------------------------------*||
E-3--3-------3--3---------3--3------1--2--3--3--||

PRECHROUS

G---------------------------------------------||
D---------------------------------------------||
A---------------------------------------------||
E-13-13-15-15-13-13-15-15-13-13-15-3-3-3-3--||

CHROUS

G----------------------------------------------------||     Repeat 1 time 
D------------------------5--5-5---5--5-5---5--------*||     and end with
A-3--3-3---3--3-3-1--1-1----------------------------*||          A-5-||
E---------------------------------------------3-3----||          E---||

FLUTE SOLO

G---------------------||   Repeat 4 times
D----------------3---*||
A-5--5-5--5-5--5---3-*||
E---------------------||

That's all the progressions the order is as follows:

Intro
Break
Verse
Prechrous
Chrous
Flute solo
Break
Verse
Prechrous
Break
Intro
Break (just the Gs and ending on Bb)		   
AcordesyTabs.com © 2008 Acordes y Tablaturas para guitarra. Tabs and Chords for guitar. Aviso Legal - Contacto
El uso de este sitio está sujeto a la aceptación de los términos y condiciones (10 usuarios online)