tablaturas, partituras y acordes para guitarra
Busca por banda/artista:
 
y/o título de la canción:
A B C D E F G H I J K L M N O P Q R S T U V W X Y Z 0 1 2 3 4 5 6 7 8 9 / Top 100 tabs
Categorías
Usuarios
usuario:
Darse de alta
password:
Artistas más visitados
Publicidad
TOP acordes y tablaturas de Jethro tull


Teacher
de Jethro tull
Puntúa este acorde/tab:      
(0.5/5)
Reportar este acorde/tab
  Añadir a tus favoritos
  Imprimir
-----------------------------7-7----------------------------7-7---------------
--7-7----7--14-5-----4-5/7-----7-7----7--14-5-----4-5/7-----7-7----7------
-------7-----------3/5----------------7-----------3/5----------------7--------
------------------------------------------------------------------------------
                                                                              

------------------7-7----------------------------7-7--------------------------
-14-5-----4-5/7-----7-7----7--14-5-----4-5/7-----7-7----7-14-5--7-------
--------3/5----------------7-----------3/5----------------7-------------3-3-3-
------------------------------------------------------------------------------
                                                                              

------------------------------------------------------------------------------
------------------------------------------------------------------------------
-5--5--------8-8--5--3-3-3-5--5--------8-8--5--3-3-3-5--5---------8-8--5--3---
------------------------------------------------------------------------------
                                                                              

------------------------------------------------------------------------------
------------------------------------------------------------------------------
-3-3-5--5---------8-8-8-8-2---------------------------------------------------
------------------------------------------------------------------------------
                                                                              

---------------------2-2h4-4---------------------2-2h4-4----------------------
-------0-0h2--2-2h4-----------------0-0h2--2-2h4----------------0-0h2--2-2h4--
-0h2-2------------------------0h2-2-----------------------0h2-2---------------
------------------------------------------------------------------------------
                                                                              

-2-2h4-4--------------------------------------------------7-7-----------------
----------------0-0h2--2-2h4---7-7----7--14-5-----4-5/7------7-7----7--14-
----------0h2-2---------------------7-----------3/5-----------------7---------
------------------------------------------------------------------------------
                                                                              

-------------7-7----------------------------7-7----------------------------7--
-5-----4-5/7-----7-7----7--14/5-5-----4-5/7-----7-7----7--14-5-----4-5/7----
---3/5----------------7-----------3/5----------------7-----------3/5----------
------------------------------------------------------------------------------
                                                                              

-7----------------------------------------------------------------------------
---7-7----7--14-5--7--------------------------------------------------------
--------7---------------3-3-3-5--5--------8-8--5--3-3-3-5--5--------8-8--5----
------------------------------------------------------------------------------
                                                                              

------------------------------------------------------------------------------
------------------------------------------------------------------------------
-3-3-3-5--5--------8-8--5--3-3-3-5--5--------8-8-5-4-2------------------------
------------------------------------------------------------------------------
                                                                              

---------------------2-2h4-4----------------------2-2h4-4---------------------
-------0-0h2--2-2h4-----------------0-0h2--2-2h4-----------------0-0h2--2-2h4-
-0h2-2------------------------0h2-2------------------------0h2-2--------------
------------------------------------------------------------------------------
                                                                              

--2-2h4-4-------------------------------------5--7--5-------------------------
-----------------0-0h2--2-2h4--7--7--7-7-7--7----------7-7-7-5-7--7---7-7-7---
-----------0h2-2----------------------------------------------------7---------
------------------------------------------------------------------------------
                                                                              

-5--7--5------------5-7-8--9--12-14-12h14-12----------------------------------
----------7-7-7-7-7--------------------------14-13--12-10-------10-12--10-----
----------------------------------------------------------12-12-----------12--
------------------------------------------------------------------------------
                                                                              

-----------------------------------------5--7--5-----------------------5--7---
----------10-----------------7--7--7-7-7----------7-7-7-5-7--7---7-7-7--------
-10-12-12----12-10-----10-12-----------------------------------7--------------
--------------------12--------------------------------------------------------
                                                                              

-5----------------------------------------------------------------------------
----7-7-7-7-------------------------------------------------------------------
------------2-----------------------------------------------------------------
------------------------------------------------------------------------------
                                                                              

--------------------2-2h4--4--------------------------------------------------
-------0-0h2--2-2h4-----------------0-0h2--2-2h4--7-7----7--12-5-----4-5/7--
-0h2-2------------------------0h2-2--------------------7-----------3/5--------
------------------------------------------------------------------------------
                                                                              

-7-7---------------------------7-7-----------------------------7-7------------
-----7-7----7-12-5-----4-5/7-----7-7----7--12-5------4-5/7-----7-7----7---
----------7----------3/5----------------7------------3/5----------------7-----
------------------------------------------------------------------------------
                                                                              

------------------------------------------------------------------------------
-12-5--7--------------------------------------------------------------------
------------3-3-3-5--5--------8-8--5--3-3-3-5--5--------8-8--5--3-3-3-5--5----
------------------------------------------------------------------------------
                                                                              

------------------------------------------------------------------------------
------------------------------------------------------------------------------
------8-8--5--3-3-3-5--5--------8-8-5-4-2-------------------------------------
------------------------------------------------------------------------------
                                                                              

----------------------2-2h4-4----------------------2-2h4-4--------------------
--------0-0h2--2-2h4-----------------0-0h2--2-2h4-----------------------------
--0h2-2------------------------0h2-2------------------------------------------
------------------------------------------------------------------------------
                                                    play this till the end...		   
AcordesyTabs.com © 2008 Acordes y Tablaturas para guitarra. Tabs and Chords for guitar. Aviso Legal - Contacto
El uso de este sitio está sujeto a la aceptación de los términos y condiciones (23 usuarios online)