tablaturas, partituras y acordes para guitarra
Busca por banda/artista:
 
y/o título de la canción:
A B C D E F G H I J K L M N O P Q R S T U V W X Y Z 0 1 2 3 4 5 6 7 8 9 / Top 100 tabs
Categorías
Usuarios
usuario:
Darse de alta
password:
Artistas más visitados
Publicidad
TOP acordes y tablaturas de John mayer


Why georgia
de John mayer
Puntúa este acorde/tab:      
(0.4/5)
Reportar este acorde/tab
  Añadir a tus favoritos
  Imprimir
tuning: standard (E-A-D-G)

Verse
G|---------------------------------------------------------------|
D|---------------------------------------------------------------|
A|---5---5---5--5-3-3-3-3-3-3---5---5----------------------------|
E|-3---3---3--3---------------3---3------------------------------|

Pre Chorus
G|---------------------------------------------------------------|
D|---------------------------------------------------------------|
A|-------3-------0-----------------------------------------------|
E|-0-2-3---0-2-3-------------------------------------------------|

Chorus
G|---------------------------------------------------------------|
D|---------------------------------------------------------------|
A|-5-0---5-0---5-0-----3-----------------------------------------|
E|-----3-----0-----3-1-------------------------------------------|

Bridge
G|---------------------------------------------------------------|
D|---------------------------------------------------------------|
A|---------1-3-1---1-3-1---3-5-3---5-3---------------------------|
E|-3-3-3-1-------1-------3-------0-----1-------------------------|		   
AcordesyTabs.com © 2008 Acordes y Tablaturas para guitarra. Tabs and Chords for guitar. Aviso Legal - Contacto
El uso de este sitio está sujeto a la aceptación de los términos y condiciones (32 usuarios online)