tablaturas, partituras y acordes para guitarra
Busca por banda/artista:
 
y/o título de la canción:
A B C D E F G H I J K L M N O P Q R S T U V W X Y Z 0 1 2 3 4 5 6 7 8 9 / Top 100 tabs
Categorías
Usuarios
usuario:
Darse de alta
password:
Artistas más visitados
Publicidad
TOP acordes y tablaturas de Kiss
:: Beth - Kiss


Estás en: Inicio > Letra K > Acordes y tablaturas de Kiss > 2000 man
2000 man
de Kiss
Puntúa este acorde/tab:      
(0.6/5)
Reportar este acorde/tab
  Añadir a tus favoritos
  Imprimir
Eb Tuning

Fig. 1
Gb|----------------------------------------------------|
Db|----------------------------------------------------|
Ab|-----------6h^7-7-7----------6h^7-7-7---------------|
Eb|--4h^5-5-5----------4h^5-5-5----------4h^5-5-5------|
     <--4x--> <--2x--> <--6x--> <--2x--> <--2x-->

Fig. 2
Gb|----------------------------------------------------|
Db|----------------------------------------------------|
Ab|----4h^5-5-5----------4h^5-5-5----------7-----------|
Eb|-------------4h^5-5-5----------4h^5-5-5-------------|
       <--4x--> <--4x--> <--4x--> <--2x-->

Fig. 3
Gb|----------------------------------------------------|
Db|----------------------------------------------------|
Ab|---------------7------------------------------------|
Eb|---0-0-0-0-0-0--------------------------------------|


Fig. 4
Gb|----------------------------------------------------|
Db|----------------------------------------------------|
Ab|-------5-----7-7---5-------------5------7-7---------|
Eb|-5--5----5-------5----5--5-5--5-----5-------5-5--5--|

Fig. 5
Gb|----------------------------------------------------|
Db|----------------------------------------------------|
Ab|--5-5-5-5--------------------5--5--5----------------|
Eb|----------7-7-7-7-5--5--5--5----------5-------------|
     <--4x-> <--4x-> 

Gb|----------------------------------------------------|
Db|----------------------------------------------------|
Ab|---7----------------------7-------------------------|
Eb|------0-0-0-0-0-0--7--0------0-0-0-0-0-0--7--0------|

Fig. 6
Gb|----------------------------------------------------|
Db|----------------------------------------------------|
Ab|---------------------7-------7----------------------|
Eb|---0-----0-0-0-0-0-0----0-0-------------------------|
            <-----2X---->  <-3X->

Fig. 7
Gb|----------------------------------------------------|
Db|----------------------------------------------------|
Ab|---5-7-4h^5-5-5----------4h^5-5-5----------7--------|
Eb|----------------4h^5-5-5----------4h^5-5-5----------|
          <--4x--> <--4x--> <--4x--> <--2x-->

Fig. 8
Gb|----------------------------------------------------|
Db|----------------------------------------------------|
Ab|-----------4h^5-5-5-6h^7-7-7-4h^5-5-5---------------|
Eb|--4h^5-5-5------------------------------------------|
     <--4x--> <--4x--> <--2x--> <--2x-->

Fig. 9
Gb|----------------------------------------------------|
Db|---------7-7------------------7-7-------------------|
Ab|----0--0-----0--0-4-5-4--0--0-----0--0-4-5-4--------|
Eb|----------------------------------------------------|
       <--4X-->             <--3X-->

Gb|----------------------------------------------------|
Db|--------7-7-----------------------------------------|
Ab|---0--0-----0---0-----------------------------------|
Eb|----------------------------------------------------|



2,000 MAN - Mick Jagger, Keith Richards


Guitar intro

Well, my name it is a number
It's on a piece of plastic film
And I've been growin' funny flowers
Outside on my little window sill
And don't you know I'm a 2,000 man
And my kids, they just don't understand me at all

[Fig. 1]
You know, my wife still respects me
Even though I really misuse her
I am having an affair
With the Random computer
But don't you

[Fig. 2]
know I'm a 2,000 man
And my kids, they just don't understand me at all

[Fig. 3]

[Fig. 4] (2x)
Oh daddy, proud of your planet
Oh mommy, proud of your sun
Oh daddy, proud of your planet
Oh mommy. proud of your sun

[Fig. 5]
Oh daddy, your brain's still flashin'
Like they did when you were young
Or did they come down crashin'
Seeing all the things you'd done
Spacin' out and havin' fun

[Fig. 4] (2x)
Oh daddy, proud of your planet
Oh mommy, proud of your sun
Oh daddy, proud of your planet
Oh mommy. proud of your sun

[Fig. 3] (4x)

[Fig. 1] w/[Solo 1]

[Fig. 5]
Oh daddy, your brain's still flashin'
Like they did when you were young
Or did they come down crashin'
Seeing all the things you'd done
Spacin' out and havin' fun

[Fig. 2] (2x)
And don't you know I'm a 2,000 man
And my kids, they just don't understand me at all
And don't you know I'm a 2,000 man
And my kids, they just don't understand me at all

[Fig. 6]
Understand me, u-understand me, u-understand me, now understand me

[Fig. 7] (2x)
And don't you know I'm a 2,000 man
And my kids, they just don't understand me at all
And don't you know I'm a 2,000 man
And my kids, they just don't understand me at all

[Fig. 3] (2x)

[Fig. 8] w/Solo 2

[Fig. 9]
I'm a 2,000 man,             
I'm a 2,000 man
I'm a 2,000 man, 
I'm a 2,000 man, yeah, 2,000		   
AcordesyTabs.com © 2008 Acordes y Tablaturas para guitarra. Tabs and Chords for guitar. Aviso Legal - Contacto
El uso de este sitio está sujeto a la aceptación de los términos y condiciones (32 usuarios online)