tablaturas, partituras y acordes para guitarra
Busca por banda/artista:
 
y/o título de la canción:
A B C D E F G H I J K L M N O P Q R S T U V W X Y Z 0 1 2 3 4 5 6 7 8 9 / Top 100 tabs
Categorías
Usuarios
usuario:
Darse de alta
password:
Artistas más visitados
Publicidad
TOP acordes y tablaturas de Kiss
:: Beth - Kiss


Estás en: Inicio > Letra K > Acordes y tablaturas de Kiss > Always near you/nowhere to hide
Always near you/nowhere to hide
de Kiss
Puntúa este acorde/tab:      
(0.6/5)
Reportar este acorde/tab
  Añadir a tus favoritos
  Imprimir
Standard tuning

Comments: There isn't much to this bass line either. I like the nice change
in register in Rhy. Fig 1. And the verse arpeggios, staccato of course, are
cool. I might have counted a little wrong in the outro. It's the correct
number of repetitions but I'm not sure if I got the high A-C#-B figure in
the right place.


Key:
/    = slide up
    = slide down
b    = bend (whole step)
b^   = bend (1/2 step)
b^^  = bend (1 1/2 steps)
pb   = pre-bend
r    = release-bend
t    = tap with righthand finger
h    = hammer-on
p    = pull-off
~    = Vibrato
*    = Natural Harmonic
#(#) = Trill
**   = Artificial Harmonic
x    = Dead notes (no pitch)
P.M. = Palm mute (- -> underneath indicates which notes)
()  = Dive war
(/)  = Release war
Tp   = Tap wplectrum


Rhythm Fig. 1
                                                  
G|-----------------------------/9----7-----------|
D|--------------------------------------9-------|
A|-----------------------------------------------|
E|--1----1----1----1----3----3-------------------|


                                              
G|-----------------------------------------------|
D|-----------------------------------------------|
A|-----------------------------------------------|
E|--1----1----1----1----3----3----3----3---------|


                                               
G|-----------------------------/9----7-----------|
D|--------------------------------------9-------|
A|-----------------------------------------------|
E|--1----1----1----1----3----3-------------------|


                                                 
G|-----------------------------------------------|
D|-----------------------------------------------|
A|------------------------2--2--2--2--2--2--2----|
E|--1----1----1----1-----------------------------|




End 1
                                        
G|-----------------------------------------------|
D|--2--------------------------------------------|
A|-----------------------------------------------|
E|------------------------------0----------------|




Rhythm Fig. 2
                                             
G|-----------------------------------------------|
D|-----------3--------------2--------------------|
A|-----0--3--------------------2-----------------|
E|--1-----------------------------0--------------|


                                          
G|-----------------------------------------------|
D|-----------------------------------------------|
A|--5-----0--5-----------------------------------|
E|-----2-----------------------------------------|



Rhythm Fig. 3
                                        
G|-----------------------------------------------|
D|-----------------------------------------------|
A|-----------------------------------------------|
E|--12------------------------------------------|




Rhythm Fig. 4
                                            
G|-----------------------------------------------|
D|--2----2----2----2-----------------------------|
A|------------------------0----2-----------------|
E|-----------------------------------------------|


                                                 
G|-----------------------------------------------|
D|-----------------------------------------------|
A|--7-------------------------0----2------2/-----|
E|--------0--0--0--0--0--0-----------------------|


                                                
G|-----------------------------------------------|
D|-----------------------------------------------|
A|--7----7--7--7--7--7--7----0----2------2/------|
E|-----------------------------------------------|


                                              
G|-----------------------------------------------|
D|-----------------------------------------------|
A|--7----7----7--7--7------0--0---2----2/--------|
E|-----------------------------------------------|


                                             
G|-----------------------------------------------|
D|-----------------------------------------------|
A|--7----7----7----7------0----2------2/---------|
E|-----------------------------------------------|


                                             
G|-----------------9----------------------------|
D|-----------------------------------------------|
A|--7----7----7-----------0----2------2/---------|
E|-----------------------------------------------|


                                                
G|-----------------------------------------------|
D|-----------------------------------------------|
A|--7--7--7--7--7--7--7-----0--0---2----2/------|
E|-----------------------------------------------|


                                                 
G|-----------------------------------------------|
D|-----------------------------------------------|
A|--7--7--7--7--7--7--7------0----2--2----2/-----|
E|-----------------------------------------------|
  < - - - - - - - - - - 10x - - - - - - - - - >

                                                 
G|-----------------------------------------------|
D|-------------------------7---/11----9----------|
A|--7--7--7--7--7--7--7--------------------------|
E|-----------------------------------------------|


                                                 
G|-----------------------------------------------|
D|-----------------------------------------------|
A|--7--7--7--7--7--7--7------0----2--2----2/-----|
E|-----------------------------------------------|
   < - - - - - - - - - 4x - - - - - - - - - >

                                                     
G|-----------------------------------------------|
D|-----------------------------------------------|
A|--7--7--7--7--7--7--7------0--0----2----2------|
E|-----------------------------------------------|



ALWAYS NEAR YOU / NOWHERE TO HIDE 
Simmons

[Intro: Guitar only]

[Guitar and drums only]
I've just begun since you've gone, to understand I'm the only one 
And if you cross yourself at night 
I'll come and see you, don't run and hide 
I'm always near you, I'm always near you, near you 

And if you turn out the light (turn out the light) 
Don't think you'll hide behind the night (behind the night) 
And if you touch me, I might 

[Rhy. Fig 1 w/ End 1]
Might turn and see you, don't run and hide 
I'm always near you, I'm always near you, near you 

[Rhy. Fig 2] (3x)
I've just begun since you've gone (since you've been gone) 
To understand I'm the only one (the only one) 
And if you cross yourself at night 
[Rhy. Fig 3]

[Rhy. Fig 1]
I'll come and see you, don't run and hide 
I'm always near you, I'm always near you 

[Rhy. Fig 4] 
Near you 
Don't run and hide, you'll be the only one 
I said don't try to hide for me and everyone 
Don't try to hide, you'll be the only one 
I said don't try to hide for me and everyone 
Everyone, oh everyone, oh everyone 
Everyone, oh everyone, aha, oh everyone 
Everyone, oh aha, aha, everyone, oh everyone, aha, oh aha 		   
AcordesyTabs.com © 2008 Acordes y Tablaturas para guitarra. Tabs and Chords for guitar. Aviso Legal - Contacto
El uso de este sitio está sujeto a la aceptación de los términos y condiciones (38 usuarios online)