tablaturas, partituras y acordes para guitarra
Busca por banda/artista:
 
y/o título de la canción:
A B C D E F G H I J K L M N O P Q R S T U V W X Y Z 0 1 2 3 4 5 6 7 8 9 / Top 100 tabs
Categorías
Usuarios
usuario:
Darse de alta
password:
Artistas más visitados
Publicidad
TOP acordes y tablaturas de Kiss
:: Beth - Kiss


Estás en: Inicio > Letra K > Acordes y tablaturas de Kiss > Any way you want it
Any way you want it
de Kiss
Puntúa este acorde/tab:      
(0.6/5)
Reportar este acorde/tab
  Añadir a tus favoritos
  Imprimir
Tuned down 1/2-step


Key:
/    = slide up
    = slide down
b    = bend (whole step)
b^   = bend (1/2 step)
b^^  = bend (1 1/2 steps)
pb   = pre-bend
r    = release-bend
t    = tap with righthand finger
h    = hammer-on
p    = pull-off
~    = Vibrato
*    = Natural Harmonic
#(#) = Trill
**   = Artificial Harmonic
x    = Dead notes (no pitch)
P.M. = Palm mute (- -> underneath indicates which notes)
()  = Dive war
(/)  = Release war
Tp   = Tap wplectrum





Rhythm Fig. 1
                                                    
Gb|----------------------------------------------|
Db|----------------------------------------------|
Ab|----------------------------------------------|
Eb|--5----5----5----5--0--2----2----2----2--0----|



Rhythm Fig. 2
                                            
Gb|----------------------------------------------|

Db|----------------------------------------------|
Ab|----------------------------------------------|
Eb|--5----5----5----5--0--2----------------------|



Rhythm Fig. 3
                                              
Gb|----------------------------------------------|
Db|----------------------------------------------|
Ab|--5----5----5----5----7----7----7----7--------|
Eb|----------------------------------------------|



Rhythm Fig. 4
                                                 
Gb|----------------------------------------------|
Db|----------------------------------------------|
Ab|----------------------------------------------|
Eb|--5----5----5----5------0--0--0--0--0--0--0---|




Rhythm Fig. 5
                                          
Gb|----------------------------------------------|
Db|----------------------------------------------|
Ab|----------------------------------------------|
Eb|--5----5----5----5----------------------------|
    < - - - 2x - - - >



Rhythm Fig. 6
                                                
Gb|----------------------------------------------|
Db|----------------------------------------------|
Ab|--5----5----4/-5--5---------------------------|
Eb|-----------------------5----5----4/-5--5------|


                                                   
Gb|----------------------------------------------|
Db|----------------------------------------------|
Ab|--5----5----4/-5--5---------------------------|
Eb|----------------------7--7--7--7--7--7--7--7--|


                                                     
Gb|----------------------------------------------|
Db|----------------------------------------------|
Ab|--7--7--7--7--7--7--7--7--7--7--7--7--7--7--7-|
Eb|----------------------------------------------|



Rhythm Fig. 7
                                                
Gb|----------------------------------------------|
Db|----------------------------------------------|
Ab|--5----5----4/-5--5---------------------------|
Eb|-----------------------5----5----4/-5--5------|


                                                   
Gb|----------------------------------------------|
Db|----------------------------------------------|
Ab|--5----5----4/-5--5---------------------------|
Eb|----------------------7--7--7--7--7--7--7--7--|


                                               
Gb|----------------------------------------------|
Db|----------------------------------------------|
Ab|--7--7--7--7--7--7--7--7--7-------------------|
Eb|----------------------------------------------|



Rhythm Fig. 8
                                              
Gb|----------------------------------------------|
Db|----------------------------------------------|
Ab|----------------------5----5----7----7--------|
Eb|--5----5----5----5----------------------------|
    < - - - - - - - - 2x - - - - - - - - - >

                                                 
Gb|----------------------------------------------|
Db|----------------------5h7--5------------------|
Ab|------------------------------7---------------|
Eb|--5----5----5----5---------------5------------|



Riff 1
                                          
Gb|----------------------------------------------|
Db|----------------------------------------------|
Ab|----------------------------------------------|
Eb|--17-----------------------------------------|






ANY WAY YOU WANT IT
Dave Clark

[Intro: guitar only]
[Riff 1]

[Rhy. Fig 1] (3x)
Any way you want it, you can call me any day, hey, hey, hey
[Rhy. Fig 2]
Any way you want it, you will always hear me say, hey, hey, hey
[Riff 1]

[Rhythm Fig. 1] (2x)
It's alright (it's alright), it's alright (it's alright)
It's alright (it's alright), it's alright
[Rhy. Fig 3]
So any way you want it, that's the way it will be
[Rhy. Fig 4]

[Rhythm Fig. 1] (3x)
You don't want money, you don't want a diamond ring, hey, hey, hey
[Rhy. Fig 2]
You say you want my lovin' more than any other thing, hey, hey, hey
[Riff 1]

[Rhythm Fig. 1] (2x)
It's alright (it's alright), it's alright (it's alright)
It's alright (it's alright), it's alright
[Rhy. Fig 3]
So any way you want it, that's the way it will be
[Rhy. Fig 5]

[Rhythm Fig. 6]
Any way, any way you want it, that's alright by me
Any way, any way you want it, that's the way it will be

[Rhythm Fig. 1] (3x)
Any way you want it, you can call me any day, hey, hey, hey
[Rhy. Fig 2]
Any way you want it, you will always hear me say, hey, hey, hey
[Riff 1]

[Rhythm Fig. 1] (2x)
It's alright (it's alright), it's alright (it's alright)
It's alright (it's alright), it's alright
So any way you want it, that's the way it will be
[Rhy. Fig 5]

[Rhythm Fig. 7]
Any way, any way you want it, that's alright by me
Any way, any way you want it, that's the way it will be
[Riff 1]

[Rhythm Fig. 1] (3x)
Any way you want it, you can call me any day, hey, hey, hey
[Rhy. Fig 2]
Any day you want it, you will always hear me say, hey, hey, hey
[Riff 1]

[Rhythm Fig. 1] (2x)
It's alright (it's alright), it's alright (it's alright)
It's alright (it's alright), it's alright
[Rhy. Fig 3]
So any way you want it, that's the way it will be
[Rhythm Fig. 8]
That's the way it will be
That's the way it will be		   
AcordesyTabs.com © 2008 Acordes y Tablaturas para guitarra. Tabs and Chords for guitar. Aviso Legal - Contacto
El uso de este sitio está sujeto a la aceptación de los términos y condiciones (24 usuarios online)