tablaturas, partituras y acordes para guitarra
Busca por banda/artista:
 
y/o título de la canción:
A B C D E F G H I J K L M N O P Q R S T U V W X Y Z 0 1 2 3 4 5 6 7 8 9 / Top 100 tabs
Categorías
Usuarios
usuario:
Darse de alta
password:
Artistas más visitados
Publicidad
TOP acordes y tablaturas de Kiss
:: Beth - Kiss


Estás en: Inicio > Letra K > Acordes y tablaturas de Kiss > Burning up with fever
Burning up with fever
de Kiss
Puntúa este acorde/tab:      
(0.6/5)
Reportar este acorde/tab
  Añadir a tus favoritos
  Imprimir
Standard tuning

Comments: Once again Neil Jason turns in a stellar performance. This time
he plays his usual staccato lines with the occasional slap and pop which,
towards the end, turns into a slap-fest. He uses a sound that's better for
finger-style playing than for slapping which gives the slapping (and popping)
a slightly muffled feeling. It's not like anything the demon himself would 
ever play but it is cool. Adds a fresh thing for the last choruses. T stands
for thumb slap and P for finger pop. Some of the moves here, like the quick
change from fingerstyle to pop in the chorus (Rhy. Figs 5), are difficult but
can be accomplished by not fully changing the hand position to slap-style but
rather just popping the D-string quickly with the middle finger.


Key:
/    = slide up
    = slide down
b    = bend (whole step)
b^   = bend (1/2 step)
b^^  = bend (1 1/2 steps)
pb   = pre-bend
r    = release-bend
t    = tap with righthand finger
h    = hammer-on
p    = pull-off
~    = Vibrato
*    = Natural Harmonic
#(#) = Trill
**   = Artificial Harmonic
x    = Dead notes (no pitch)
P.M. = Palm mute (- -> underneath indicates which notes)
()  = Dive war
(/)  = Release war
Tp   = Tap wplectrum



Rhythm Fig. 1
                                               
G|----------------------------------------------------|
D|----------------------------------------------------|
A|----------------------------------------------------|
E|--5----5--3--5---------5------3---------------------|
   < - - 3x - - >

                                          
G|----------------------------------------------------|
D|----------------------------------------------------|
A|----------------------------------------------------|
E|----------0-2---2-3---------------------------------|



Rhythm Fig. 2a
                                                  
G|------------------14-------------------------------|
D|----------------------------------------------------|
A|----------------------------------------------------|
E|--5----5--3--5-----------5----5--3--5----5-3--------|


                                                  
G|-----------------------------------------12--------|
D|----------------------------------------------------|
A|----------------------------------------------------|
E|--5----5--3--5----5--3---5----5--3--5---------------|



Rhythm Fig. 2b
                                                   
G|------------------/14-------------------------------|
D|----------------------------------------------------|
A|----------------------------------------------------|
E|--5----5--5-3-5-----------5----5--3--5----5--3------|


                                                 
G|---------------------------------------/11----------|
D|----------------------------------------------------|
A|----------------------------------------------------|
E|--5----5--3--5----3-----5----5--3--5----------------|



Rhythm Fig. 2c
                                                  
G|------------------14-------------------------------|
D|----------------------------------------------------|
A|----------------------------------------------------|
E|--5----5--3--5-----------5----5--3--5----5--3-------|


                                                  
G|------------------14-------------------------------|
D|----------------------------------------------------|
A|--------------------------------------------0-------|
E|--5----5--3--5-----------5----5--3--5-----3---------|



Rhythm Fig. 3
                                                      
G|----------------------------------------------------|
D|----------------------------------------------------|
A|--5--5--5--5--3--3--3--3---5--5--5--5---------------|
E|---------------------------------------0-2---2-3----|



Rhythm Fig. 4a
                                                
G|------------------12-------------------------------|
D|----------------------------------------------------|
A|----------------------------------------------------|
E|--5----5--3--5-----------5----5--3--5---------------|




Rhythm Fig. 4b
                                                   
G|------------------12-------------------------------|
D|----------------------------------------------------|
A|--------------------------------------------0-2-----|
E|--5----5--3--5-----------5----5--3--5-----3---------|




Rhythm Fig. 5a
                                                      
G|----------------------------------------------------|
D|-----------------------------------------------7---|
A|--3--3--3--3--5--5--5--5---0--0--0--0--0--0--0------|
E|----------------------------------------------------|
                                                 P
  < - - - - - - - - - - - - 3x - - - - - - - - - - - >

                                                   
G|----------------------------------------------------|
D|----------------------------------------------------|
A|--3--3--3--3--5--5--5--5----------------------------|
E|---------------------------0------------0-2---2-3---|
                             T



Rhythm Fig. 5b
                                                      
G|----------------------------------------------------|
D|-----------------------------------------------7----|
A|--3--3--3--3--5--5--5--5---0--0--0--0--0--0--0------|
E|----------------------------------------------------|
                                                 P  
  < - - - - - - - - - - - - 3x - - - - - - - - - - - >

                                                 
G|----------------------------------------------------|
D|----------------------------------------------------|
A|--3--3--3--3--5--5--5--5----------------------------|
E|---------------------------0-------------2----3-----|
                             T





Rhythm Fig. 5c
                                                      
G|----------------------------------------------------|
D|-----------------------------------------------7----|
A|--3--3--3--3--5--5--5--5---0--0--0--0--0--0--0------|
E|----------------------------------------------------|
                                                 P
  < - - - - - - - - - - - - 3x - - - - - - - - - - - >
            
                                   
G|----------------------------------------------------|
D|----------------------------------------------------|
A|--3--3--3--3--5--5--5--5----------------------------|
E|---------------------------0------------------------|
                             T


Rhythm Fig. 5d
                                                      
G|----------------------------------------------------|
D|-----------------------------------------------/7~--|
A|--3--3--3--3--5--5--5--5---0--0--0--0--0--0--0------|
E|----------------------------------------------------|
   < - - - - - - - - - - - - 3x - - - - - - - - - - - >                                                

                                               
G|----------------------------------------------------|
D|----------------------------------------------------|
A|--3--3--3--3--5--5--5--5----------------------------|
E|---------------------------0------------------------|
                             T

                                                  
G|--21------19----------------------------------------|
D|----------------------------------------------------|
A|-----21-----19------------------0-2---------------|
E|------------------------------2-3-------------------|



Rhythm Fig. 6
                                                        
G|-------------------------------------------5---5h6------------|
D|---------------------------------------------7----------------|
A|--3--3--3--3--5--5--5--5--------------------------------------|
E|--------------------------5--5--5--5--5--x--------------------|
    T - - - - - - - - - - - - - - - - - - -> P T P

                                                         
G|--------------------------------5------5-6~----14------------|
D|-----------------------------------x-7------7/----------------|
A|--3--3--3--3--5--5--5--5--------------------------------------|
E|--------------------------3/5-x-------------------------------|
    T - - - - - - - - - - - - - > P  T > P    T  P

                                                         
G|----------------------------------------------5h6-------------|
D|----------------------------------------7---------7~----------|
A|--3--3--3--3--5--5--5--5--------------------------------------|
E|--------------------------5--5--5--5--5---5-x-----------------|
    T - - - - - - - - - - - - - - - - - > P T > P   T

                                                 
G|--------------------------------------------------------21---|
D|--------------------------------------------------------21---|
A|--3--3--3--3--5--5--5--5--------------------------------------|
E|---------------------------0----------------------------------|
    T - - - - - - - - - - - - >

                                                         
G|----------------------------------------------5h6-------------|
D|----------------------------------------7---------7~----------|
A|--3--3--3--3--5--5--5--5--------------------------------------|
E|--------------------------5--5--5--5--5---5-x-----------------|
    T - - - - - - - - - - - - - - - - - > P T   P   T

                                                        
G|--------------------------------------------------------------|
D|----------------------------7-5---5-------------------------|
A|--3--3--3--3--5--5--5--5----------7---------------------------|
E|--------------------------5-------------0--3--4--5------------|
    T - - - - - - - - - - - > P T   T P   T - - - - >

                                                               
G|----------------------------------5h6-------9---11----12~-----|
D|--------------------------x-7-x-7-----x-----------------------|
A|--3--3--3--3--5--5--5--5----------------0-7---9----10---------|
E|--------------------------------------------------------------|
    T - - - - - - - - - - - - - - > P   T - > P T P  T  P

                                                              
G|-------------------------------------------12-x-12/13~--------|
D|--------------------------------------------------------------|
A|--3--3--3--3--5--5--5--5/---5/7---7/9---10--------------------|
E|--------------------------0-----x-----x-----------------------|
    T - - - - - - - - - - - - - - - - - - >  P    P

                                                              
G|--------12----------------------------------------------------|
D|--12h14----14
----------------------------------------------|
A|-----------------12------------3--3--3--3--5--5--5--5------|
E|------------------------12-----------------------------------|
    T - > P  T     T      T         T - - - - - - - - - - >

                                                
G|--------------------5h6---------------------------------------|
D|------------------------7~------------------------------------|
A|--------------------------------------------------------------|
E|--5--5--5--5--5--5--------------------------------------------|
    T - - - - - - - > P   T   (fade out)












BURNING UP WITH FEVER
Simmons

One, two, one, two, three, four 
[Intro: Nylon-string guitar only]

[Rhy. Fig 1]

[Rhy. Fig 2a]
I'm the gift and giver, not a woman mistreater,
you know that is no one else 
[Rhy. Fig 3]
You can have me just (a) one time baby, she said 
[Rhy. Fig 4a]
Baby, I'll give you a chance, 'cos I'm 

[Rhy. Fig 5a]
Burning up with fever, and you're the fever inside 
I'm burning up with fever, it's something I can't hide 

[Rhy. Fig 2b]
Sometimes you do me, sometimes you don't, I know, 
I want you all the time 
[Rhy. Fig 3]
Here's one thing you should know, I won't,
[Rhy. Fig 4b] 
I won't stand in line for your love 

[Rhy. Fig 5b]
Burning up with fever, and you're the fever inside 
I'm burning up with fever, it's something I can't hide 

[Rhy. Fig 1]

[Rhy. Fig 2c]
Sometimes you do me, sometimes you don't 
I know, I want you all the time, but I'm 

[Rhy. Fig 5c]
Burning up with fever, and you're the fever inside 
I'm burning up with fever, it's something I can't hide 

[Rhy. Fig 5d]
I'm...Burning up with fever, and you're the fever inside 
I'm burning up with fever, it's something I can't hide 

[Rhy. Fig 6]
I'm...Burning up with fever, and you're the fever inside 
I'm burning up with fever, it's something I can't hide 
(repeat lyrics and fade)		   
AcordesyTabs.com © 2008 Acordes y Tablaturas para guitarra. Tabs and Chords for guitar. Aviso Legal - Contacto
El uso de este sitio está sujeto a la aceptación de los términos y condiciones (21 usuarios online)