tablaturas, partituras y acordes para guitarra
Busca por banda/artista:
 
y/o título de la canción:
A B C D E F G H I J K L M N O P Q R S T U V W X Y Z 0 1 2 3 4 5 6 7 8 9 / Top 100 tabs
Categorías
Usuarios
usuario:
Darse de alta
password:
Artistas más visitados
Publicidad
TOP acordes y tablaturas de Kiss
:: Beth - Kiss


Estás en: Inicio > Letra K > Acordes y tablaturas de Kiss > Calling dr. love
Calling dr. love
de Kiss
Puntúa este acorde/tab:      
(0.2/5)
Reportar este acorde/tab
  Añadir a tus favoritos
  Imprimir
Tuned down 1/2-step

Rhythm Fig. 1
                                              
Gb|------------------------------------------------|
Db|------------------------------------------------|
Ab|---------------------5--------0-----------------|
Eb|--0--------3------------------------------------|


                                            
Gb|------------------------------------------------|
Db|------------------------------------------------|
Ab|---------------------5--------0----0------------|
Eb|--0--------3--------------------------3---------|



Rhythm Fig. 2
                                            
Gb|------------------------------------------------|
Db|---------------2--------------------------------|
Ab|------------------------------------------------|
Eb|--0---------------0---3------------3--0---------|


                                            
Gb|------------------------------------------------|
Db|------------------------------------------------|
Ab|--5------------5--3---0------------0------------|
Eb|--------------------------------------3---------|




Rhythm Fig. 3
                                            
Gb|------------------------------------------------|
Db|------------------------------------------------|
Ab|-----------------------------------2--3---------|
Eb|--0------------3--0---3-------------------------|


                                                 
Gb|------------------------------------------------|
Db|--5---------------------------------------------|
Ab|-----------5--------3-3--3-3--3-3--3---5--5-----|
Eb|------------------------------------------------|




Rhythm Fig. 4
                                                 
Gb|------------------------------------------------|
Db|------------------------------------------------|
Ab|--5h-7------------7--5-----5--------------------|
Eb|--------0------0--------------7----5--3--0------|


                                                
Gb|------------------------------------------------|
Db|------------------------------------------------|
Ab|--7-------------7--5-----5---------------------|
Eb|-------0------0--------------7----5--3--0-------|


                                                
Gb|------------------------------------------------|
Db|------------------------------------------------|
Ab|--7-------------7--------------5---------------|
Eb|-------0------0-----8-----7--5-------7--5-------|







Rhythm Fig. 5
                                            
Gb|------------------------------------------------|
Db|------------------------------------------------|
Ab|--7------------7--------------------------------|
Eb|------------------0---3------------3--0---------|


                                            
Gb|------------------------------------------------|
Db|------------------------------------------------|
Ab|--5------------5--3---0------------0------------|
Eb|--------------------------------------3---------|




Rhythm Fig. 6
                                            
Gb|------------------------------------------------|
Db|------------------------------------------------|
Ab|-----------------------------------2--3---------|
Eb|--0------------0--2---3-------------------------|


                                            
Gb|------------------------------------------------|
Db|------------------------------------------------|
Ab|--5------------5--3---0------------0------------|
Eb|--------------------------------------3---------|




Rhythm Fig. 7
                                                    
Gb|------------------------------------------------|
Db|------------------------------------------------|
Ab|------------------------------------------2--3--|
Eb|--0----0--0--0--0--0--2--3----3--3--3--3--------|


                                                    
Gb|------------------------------------------------|
Db|------------------------------------------------|
Ab|--5----5--5--5--5--3--2--0----0--0--0--0--0-----|
Eb|---------------------------------------------3--|




Rhythm Fig. 8
                                                    
Gb|------------------------------------------------|
Db|------------------------------------------------|
Ab|------------------------------------------2--3--|
Eb|--0----0--0--0--0--0--2--3----3--3--3--3--------|



                                                 
Gb|------------------------------------------------|
Db|--5---------------------------------------------|
Ab|-----------5---------3-3--3-3--3-3--3---5--5----|
Eb|------------------------------------------------|



Rhythm Fig. 9
                                       
Gb|------------------------------------------------|
Db|------------------------------------------------|
Ab|--7~--------------------------------------------|
Eb|------------------------------------------------|



Rhythm Fig. 10
                                             
Gb|------------------------------------------------|
Db|------------------------------------------------|
Ab|---------------------------------14------------|
Eb|--0---------------------------------------------|		   
AcordesyTabs.com © 2008 Acordes y Tablaturas para guitarra. Tabs and Chords for guitar. Aviso Legal - Contacto
El uso de este sitio está sujeto a la aceptación de los términos y condiciones (23 usuarios online)