tablaturas, partituras y acordes para guitarra
Busca por banda/artista:
 
y/o título de la canción:
A B C D E F G H I J K L M N O P Q R S T U V W X Y Z 0 1 2 3 4 5 6 7 8 9 / Top 100 tabs
Categorías
Usuarios
usuario:
Darse de alta
password:
Artistas más visitados
Publicidad
TOP acordes y tablaturas de Kiss
:: Beth - Kiss


Estás en: Inicio > Letra K > Acordes y tablaturas de Kiss > Comin' home
Comin' home
de Kiss
Puntúa este acorde/tab:      
(0.2/5)
Reportar este acorde/tab
  Añadir a tus favoritos
  Imprimir
Tuned down 1/2-step

Comments: The bass doesn't do much here, just plays some octaves and roots,
but when it does depart from following the guitars it makes it that much
stronger. The tension that's created when the bass steps away from the
root (usually with some cool chromatics) adds that little bit if fresh air
that carries an otherwise pretty mundane chord progression forward. (Gene
had a tendency to use chromatic connecting phrases like this during the 
early years. When he didn't much play during the 80's they were notably 
absent.)


Key:
/    = slide up
    = slide down
b    = bend (whole step)
b^   = bend (1/2 step)
b^^  = bend (1 1/2 steps)
pb   = pre-bend
r    = release-bend
t    = tap with righthand finger
h    = hammer-on
p    = pull-off
~    = Vibrato
*    = Natural Harmonic
#(#) = Trill
**   = Artificial Harmonic
x    = Dead notes (no pitch)
P.M. = Palm mute (- -> underneath indicates which notes)
()  = Dive war
(/)  = Release war
Tp   = Tap wplectrum




Rhythm Fig. 1
                                                       
Gb|----------------------------------------------|
Db|---------5-------5-----------5-------5--------|
Ab|------------------------------------------3-3-|
Eb|--3-3-3-------3-------3--3--------3-----------|




End 1
                                           
Gb|----------------------------------------------|
Db|---------------5------------------------------|
Ab|--3--3--3-----------5-------------------------|
Eb|----------------------------------------------|



End 2
                                                
Gb|----------------------------------------------|
Db|---------------5------------------------------|
Ab|--3--3--3-----------5----0----2----3----5--5-|
Eb|----------------------------------------------|




Rhythm Fig. 2
                                                   
Gb|----------------------------------------------|
Db|---------5-------5-----------5-------5--------|
Ab|------------------------------------------3-3-|
Eb|--3-3-3-------3-------3--3--------3-----------|


                                                
Gb|----------------------------------------------|
Db|-----------------5----------------------------|
Ab|--3--3--3--3--3-------5-----------------------|
Eb|-----------------------------0----1----2------|




Rhythm Fig. 3
                                              
Gb|----------------------------------------------|
Db|--3-----------3---------3---------5-----------|
Ab|-----3-------------3---------3---------5------|
Eb|----------------------------------------------|


                                           
Gb|----------------------------------------------|
Db|----------------------------------------------|
Ab|----0--2----3----4--5------------------------|
Eb|----------------------------------------------|



Rhythm Fig. 4
                                          
Gb|----------------------------------------------|
Db|----------------------------------------------|
Ab|-----------------------------5----------------|
Eb|--3--------2--------0-------------------------|


                                            
Gb|----------------------------------------------|
Db|----------------5-----------------------------|
Ab|--3--3--3--3---------5------------------------|
Eb|----------------------------------------------|



Rhythm Fig. 5
                                          
Gb|----------------------------------------------|
Db|----------------------------------------------|
Ab|-----------------------------7----------------|
Eb|--5--------4--------2-------------------------|


                                             
Gb|----------------------------------------------|
Db|----------------7-----------------------------|
Ab|--5--5--5--5---------7------------------------|
Eb|----------------------------------------------|






COMIN' HOME 
Paul Stanley, Ace Frehley

[Rhy. Fig 1 w/ End 1]
[Rhy. Fig 1 w/ End 2]

[Rhy. Fig 1 w/ End 1] (2x)
It's been a month or two since I was sleepin' with you
I'm comin' home again
I've been to east and west, but baby I like best
The road that leads to you
[Rhy. Fig 3]
Oh girl, it seems the whole wide world seems to say

[Rhy. Fig 2] (2x)
Hotels that all look the same
Just seem to drive me insane
But I can't get away
Until I receive a call that tells me that will be all
And then I hop a plane
[Rhy. Fig 3]
It's true, I'm not sure if you knew
I'm comin' home to you

[Rhy. Fig 4] (4x)

[Rhy. Fig 3]
Oh girl, it seems the whole wide world seems to say

[Rhy. Fig 2] (2x)
Hotels that all look the same
Just seem to drive me insane
But I can't get away
Until I receive a call that tells me that will be all
And then I hop a plane
[Rhy. Fig 3]
It's true, I'm not sure if you knew
I'm comin' home to you

[Rhy. Fig 4] (3x)
I'm comin' home to you
I'm comin' home to you
I'm comin' home, baby 

[Rhy. Fig 5] (repeat and fade)		   
AcordesyTabs.com © 2008 Acordes y Tablaturas para guitarra. Tabs and Chords for guitar. Aviso Legal - Contacto
El uso de este sitio está sujeto a la aceptación de los términos y condiciones (30 usuarios online)