tablaturas, partituras y acordes para guitarra
Busca por banda/artista:
 
y/o título de la canción:
A B C D E F G H I J K L M N O P Q R S T U V W X Y Z 0 1 2 3 4 5 6 7 8 9 / Top 100 tabs
Categorías
Usuarios
usuario:
Darse de alta
password:
Artistas más visitados
Publicidad
TOP acordes y tablaturas de Kiss
:: Beth - Kiss


Estás en: Inicio > Letra K > Acordes y tablaturas de Kiss > Creatures of the night
Creatures of the night
de Kiss
Puntúa este acorde/tab:      
(0.7/5)
Reportar este acorde/tab
  Añadir a tus favoritos
  Imprimir
Standard tuning


Key:
/    = slide up
    = slide down
b    = bend (whole step)
b^   = bend (1/2 step)
b^^  = bend (1 1/2 steps)
pb   = pre-bend
r    = release-bend
t    = tap with righthand finger
h    = hammer-on
p    = pull-off
~    = Vibrato
*    = Natural Harmonic
#(#) = Trill
**   = Artificial Harmonic
x    = Dead notes (no pitch)
P.M. = Palm mute (- -> underneath indicates which notes)
()  = Dive war
(/)  = Release war
Tp   = Tap wplectrum


Rhythm Fig. 1
                                                 
G|-----------------------------------------------|
D|--x-3------------x-5---5------------x-3--------|
A|-----------------------------------------------|
E|------1----------------------------------------|


                                            
G|-----------------------------------------------|
D|---------------x-5---5------------x-3----------|
A|-----------------------------------------------|
E|--1--------------------------------------------|


                                            
G|-----------------------------------------------|
D|---------------x-5---5------------x-1----------|
A|-----------------------------------------------|
E|--1--------------------------------------------|

                                              
G|-----------------------------------------------|
D|--3------------x-5---5--------1-1---3-3--------|
A|-----------------------------------------------|
E|-----------------------------------------------|



Rhythm Fig. 2a
                                                     
G|-----------------------------------------------|
D|-----------------------------------------------|
A|-----------------------------------------------|
E|--3--3-3-3-3--3-3--------3--3-3-3-3--3-3--3----|



Rhythm Fig. 2b
                                                     
G|-----------------------------------------------|
D|-------------------------------------1-1---3-3-|
A|-----------------------------------------------|
E|--3--3-3-3-3--3-3--------3--3-3-3--------------|



Rhythm Fig. 2c
                                                      
G|-----------------------------------------------|
D|-----------------------------------------------|
A|-----------------------------------------------|
E|--3--3-3-3-3--3-3--------1/3-3-3-3-3--3-3--3---|


                                                       
G|-----------------------------------------------|
D|-----------------------------------------------|
A|-----------------------------------------------|
E|--1/3-3-3-3-3--3-3--------1/3-3-3-3-3--3-3--3--|



Rhythm Fig. 2d
                                                        
G|-----------------------------------------------|
D|-----------------------------------------------|
A|-----------------------------------------------|
E|--3--3-3-3-3--3-3--/-15--3--3-3-3-3--3-3--3---|



Rhythm Fig. 3
                                                      
G|---------8----------8-----------8-----------8-|
D|-----------------------------------------------|
A|--6--6-6-----6--6-6------6--6-6------6--6-6----|
E|-----------------------------------------------|




Rhythm Fig. 4                                                  

G|-----------------------------------------------|
D|-----------------------------------1----3/5----|
A|-----------------------------------------------|
E|--3--3-3-3-3--3-3--3------3--------------------|



Rhythm Fig. 5
                                                     
G|-----------------------------------------------|
D|-----------------------------------------------|
A|-----------------------------------------------|
E|--1--1-1-1-1--1-1--------1--1-1-1-1--1-1--1----|



Rhythm Fig. 6
                                                  
G|-----------------------------------------------|
D|-----------------------------------------------|
A|--------10--------10--------10---------6----|
E|--3--3----------3----------3----------3--------|



Rhythm Fig. 7                                       

G|-----------------------------------------------|
D|-----------------------------------------------|
A|------6---------------------------1------------|
E|--------------------------------------(3)------|
                                        Last time only



Rhythm Fig. 8
                                                        
G|----------------------------------------------------|
D|--------------------------------------------1h3-----|
A|------------------------------------------------1h3-|
E|--1--1--1--1--1--1--1--1--1--1--1--1--1--1----------|


                                                       
G|----------------------------------------------------|
D|--------------------------------------------3p1-----|
A|------------------------------------------------3---|
E|--1--1--1--1--1--1--1--1--1--1--1--1--1--1----------|


                                                      
G|----------------------------------------------------|
D|----------------------------------------------------|
A|----------------------------------------------------|
E|--1--1--1--1--1--1--1--1--1--1--1--1--1--1--1--1----|


                                        

G|----------------------------------------------------|
D|----------------------------------------------------|
A|--4------------------6------------------------------|
E|----------------------------------------------------|


                                                         
G|----------------------------------------------------|
D|--------------------------------------------1h3-----|
A|----------------------------------------1h3-----1h3-|
E|--1--1--1--1--1--1--1--1--1--1--1--1--1-------------|


                                                        
G|----------------------------------------------------|
D|-----------------------------------------1h3--------|
A|---------------------------------------------1h3----|
E|--1--1--1--1--1--1--1--1--1--1--1--1--1----------1--|


                                                      
G|----------------------------------------------------|
D|----------------------------------------------------|
A|----------------------------------------------------|
E|--1--1--1--1--1--1--1--1--1--1--1--1--1--1--1--1----|


                                                            
G|----------------------------------------------------|
D|----------------------------------------------------|
A|--4----------------6----------------5------------5--|
E|----------------------------------------------------|




Creatures of the night
Stanley, Mitchell

[Rhy. Fig 1]

[Rhy. Fig 2a]
Searching in the darkness
Running from the day
[Rhy. Fig 3]
Hiding from tomorrow
[Rhy. Fig 2b]
Nothing left to say

[Rhy. Fig 2a]
Victims of the moment
Future deep in doubt
[Rhy. Fig 3]
Living in a whisper
[Rhy. Fig 4]
¥Til we start to shout

[Rhy. Fig 5 followed by Rhy. Fig 6]
We¥re creatures of the night
[Rhy. Fig 5 followed by Rhy. Fig 7]
We¥re creatures of the night

[Rhy. Fig 2a]
[Rhy. Fig 2b]

[Rhy. Fig 2a]
Breathing in the madness
Spitting out the lies
[Rhy. Fig 3]
Searching for an answer
[Rhy. Fig 2b]
Keep your alibis

[Rhy. Fig 2c]
Don¥t know where we¥re going
Just know where we¥ve been
[Rhy. Fig 3]
Remember when the clock strikes twelve
[Rhy. Fig 4]
The losers always win

[Rhy. Fig 5 followed by Rhy. Fig 6]
We¥re creatures of the night
[Rhy. Fig 5 followed by Rhy. Fig 7]
We¥re creatures of the night

[Rhy. Fig 2a]
[Rhy. Fig 8]
[Rhy. Fig 2d] (3x)
[Rhy. Fig 2b]

[Rhy. Fig 2a]
Searching in the darkness
Running from the day
[Rhy. Fig 3]
Hiding from tomorrow
[Rhy. Fig 2b]
Nothing left to say

[Rhy. Fig 2a]
Gathering up our courage
Ready for the fight
[Rhy. Fig 3]
Howling in the shadows
[Rhy. Fig 4]
¥Til we start to bite

[Rhy. Fig 5 followed by Rhy. Fig 6]
We¥re creatures of the night
We¥re creatures of the night
We¥re creatures of the night
[Rhy. Fig 5 followed by Rhy. Fig 7]
We¥re creatures of the night		   
AcordesyTabs.com © 2008 Acordes y Tablaturas para guitarra. Tabs and Chords for guitar. Aviso Legal - Contacto
El uso de este sitio está sujeto a la aceptación de los términos y condiciones (29 usuarios online)