tablaturas, partituras y acordes para guitarra
Busca por banda/artista:
 
y/o título de la canción:
A B C D E F G H I J K L M N O P Q R S T U V W X Y Z 0 1 2 3 4 5 6 7 8 9 / Top 100 tabs
Categorías
Usuarios
usuario:
Darse de alta
password:
Artistas más visitados
Publicidad
TOP acordes y tablaturas de Kiss
:: Beth - Kiss


Estás en: Inicio > Letra K > Acordes y tablaturas de Kiss > Escape from the island
Escape from the island
de Kiss
Puntúa este acorde/tab:      
(0.9/5)
Reportar este acorde/tab
  Añadir a tus favoritos
  Imprimir
Standard tuning

Comments: This is a full tab. There are a few parts that repeat without
variation but they are few so I used this form. Just look out for the
number of times things are played. Go for a tone with lots of midrange
to cut through and play hard with a pick. All the "x"¥s are left-hand
mutes. My guess is that Ace played this himself. Doesn't sound like Gene
at all.

Key:
/    = slide up
    = slide down
b    = bend (whole step)
b^   = bend (1/2 step)
b^^  = bend (1 1/2 steps)
pb   = pre-bend
r    = release-bend
t    = tap with righthand finger
h    = hammer-on
p    = pull-off
~    = Vibrato
*    = Natural Harmonic
#(#) = Trill
**   = Artificial Harmonic
x    = Dead notes (no pitch)
P.M. = Palm mute (- -> underneath indicates which notes)
()  = Dive war
(/)  = Release war
Tp   = Tap wplectrum


                                                              
G|---------------------------------------------------------|
D|---------------------------------------------------------|
A|---------------------------------------------------------|
E|--5--x-x--x-x--x-x-x--x--x-x--5--x-x--x-x--5-5-2--3--4---|
   < - - - - - - 3x - - - - - >

                                                   
G|---------------------------------------------------------|
D|---------------------------------------------------------|
A|---------------------------------------------------------|
E|--5--x-5--5-5--5--3--5--6-----------6-6---6-6------------|


                                                      
G|---------------------------------------------------------|
D|---------------------------------3-----------------------|
A|------------------------------3-----3-----3--3-----------|
E|--5--x-5--5-5--5--5--3--1--------------1--------1--------|


                                                           
G|---------------------------------------------------------|
D|---------------------------------------------------------|
A|---------------------------------5-5-5-5-6-6-6-6-8-8-8---|
E|--5--x-5--5-5--5--3--5--6-----6--------------------------|


                                                             
G|---------------------------------------------------------|
D|---------------------------------------------------------|
A|---------------------------------------------------------|
E|--5--x-5--5-5--5--5--3--1----1-1-1-1-1-1-1-1-1-1-1-1-1-1-|


                                                               
G|---------------------------------------------------------|
D|---------------------------------------------------------|
A|---------------------------------------------------------|
E|-3--x-x-x-x-x-x-3--3-x-x-x-x-3--x-x-x-x-x-x-3--3--3--x-x-|


                                                             
G|---------------------------------------------------------|
D|---------------------------------------------------------|
A|---------------------------------------------------------|
E|--3--x-x-x-x-x-x-3--3--x-x-x-x-3--x-x-x-x-x-x-3--4--3----|


                                                  
G|---------------------------------------------------------|
D|--3----2----0--------------------------------------------|
A|----------------0--1--2--3----1----0---------------------|
E|---------------------------------------0-1--2------------|


                                                  
G|---------------------------------------------------------|
D|---------------------------------------------------------|
A|---------------------------------------------------------|
E|--3--3-----/6--6-------3----3-3-3-3-3--4--3--------------|


                                                           
G|---------------------------------------------------------|
D|---------------------------------------------------------|
A|---------------------------------5-5-5-5-6-6-6-6-8-8-8---|
E|--5--x-5--5-5--5--3--5--6-----6--------------------------|


                                                      
G|---------------------------------------------------------|
D|---------------------------------3-----------3-----------|
A|------------------------------3-----3-----3--------------|
E|--5--x-5--5-5--5--5--3--1--------------1--------1--------|


G|---------------------------------------------------------|
D|---------------------------------------------------------|
A|---------------------------------------------------------|
E|--5--x-5--5-5--5--3--5--6-----6--5-5-5-5-3-3-3-3-1-1-1-1-|


        
                                                 
G|---------------------------------------------------------|
D|---------------------------------3-3-3-3-3-3----3--------|
A|---------------------------------------------3-----3-----|
E|--5--x-5--5-5--5--5--3--1-----1--------------------------|



                                                               
G|---------------------------------------------------------|
D|---------------------------------------------------------|
A|---------------------------------------------------------|
E|-3--x-x-x-x-x-x-3--3-x-x-x-x-3--x-x-x-x-x-x-3--3--3--x-x-|



                                                             
G|---------------------------------------------------------|
D|---------------------------------------------------------|
A|---------------------------------------------------------|
E|--3--x-x-x-x-x-x-3--3--x-x-x-x-3--x-x-x-x-x-x-3--4--3----|



                                                       
G|---------------------------------------------------------|
D|--3--------3--2--0---------------------------------------|
A|--------------------0--1--2---3----1----0----------------|
E|--------------------------------------------0-1--2-------|


                                                  
G|---------------------------------------------------------|
D|---------------------------------------------------------|
A|---------------------------------------------------------|
E|--3--3-----/6--6-------3----x-3-3-3-3--4--3--------------|


                                                    
G|---------------------------------------------------------|
D|---------------------------------------------------------|
A|------3-3---------3-3-----3---------3-3------------------|
E|--1---------1-1---------------3-3---------3-3------------|


                                                         
G|---------------------------------------------------------|
D|---------------------------------------------------------|
A|---------------------------------------------------------|
E|--5--x-5--x-5--x-5-3--5-----5--x-5--x-5--5-5-2--3--4-----|
   < - - - - - 3x - - - - >

  
G|---------------------------------------------------------|
D|---------------------------------------------------------|
A|---------------------------------------------------------|
E|--5--x-5--x-5--x-5-3--5-----5--5-4--4-3--2-2-1--1--------|
   < - - - - - 3x - - - - >

                                                         
G|---------------------------------------------------------|
D|---------------------------------------------------------|
A|-----------------3-3-------------------------5--3--0-----|
E|--1--x-1--x-1--x------1-----1--x-1--x-1--x-1-------------|


                                                        
G|---------------------------------------------------------|
D|---------------------------------------------------------|
A|-----------------3-3-------------------------------------|
E|--1--x-1--x-1--x------1-----1--1-2--2-3--3-3-4--4--------|


                                                         
G|---------------------------------------------------------|
D|---------------------------------------------------------|
A|-----------------7-7-----------------------5-5-----------|
E|--5--x-5--x-5--x------5-----3--x-3--x-3--x------3--3/----|


                                                          
G|---------------------------------------------------------|
D|---------------------------------------------------------|
A|-----------------7-7--------------------------0--3-------|
E|--5--x-5--x-5--x------5--3---1--x-1--x-1--x-1-------1----|


                                                        
G|---------------------------------------------------------|
D|---------------------------------------------------------|
A|-----------------7-7-----------------------5-5-----------|
E|--5--x-5--x-5--x------5-----3--x-3--x-3--x------3--------|


                                                          
G|---------------------------------------------------------|
D|---------------------------------------------------------|
A|---------------------------------------------0----1------|
E|--1-1-1-1-1-1-1-1-1-1-1-1-1-1-1-1--1----3----------------|


                                                           
G|---------------------------------------------------------|
D|---------------------------------2-2-2-2-3-3-3-3-5-5-5---|
A|--2--x-2--2-2--2--0--2--3-----3--------------------------|
E|---------------------------------------------------------|


                                                      
G|---------------------------------------------------------|
D|---------------------------------5-----------5-----------|
A|--2--x-2--2-2--2--2--0--------5-----5-----5--------------|
E|------------------------3--------------3--------3--------|

                                                           
G|---------------------------------------------------------|
D|---------------------------------------------------------|
A|--2--x-2--2-2--2--0--2--3-----3--2-2-2-2-0-0-0-0---------|
E|-------------------------------------------------3-3-3---|


                                                          
G|---------------------------------------------------------|
D|---------------------------------------------------------|
A|--2--x-2--2-2--2--2--0-----------5-5-5-5----5-5-5-5-5----|
E|------------------------3-----3----------3---------------|


                                                               
G|---------------------------------------------------------|
D|---------------------------------------------------------|
A|---------------------------------------------------------|
E|-5--x-x-x-x-x-x-5--5-x-x-x-x-5--x-x-x-x-x-x-5--5--5--x-x-|


                                                             
G|---------------------------------------------------------|
D|---------------------------------------------------------|
A|---------------------------------------------------------|
E|--5--x-x-x-x-x-x-5--5--x-x-x-x--5--x-x-x-x-x-x-5--6--5---|


                                                
G|---------------------------------------------------------|
D|--5----4----2--------------------------------------------|
A|-----------------2/----5----3----2-----------------------|
E|------------------------------------2--3--4--------------|


                                                 
G|---------------------------------------------------------|
D|---------------------------------------------------------|
A|---------------------------------------------------------|
E|--5--5-----/8--8-------5----x-x-x--5--6--5---------------|
  < - - - - - - - - - 2x - - - - - - - - - - >

                                                       
G|---------------------------------------------------------|
D|---------------------------------------------------------|
A|---------------------------------------------------------|
E|--5--6--5----5--6--5--6--7--8--7--8--9--10--9--10--------|


                                           
G|---------------------------------------------------------|
D|---------------------------------------------------------|
A|---------------------------------------------------------|
E|--11-11-11-11-5-5-5/11-11-11-11-5-5-5/---------------|


                                                              
G|---------------------------------------------------------|
D|---------------------------------------------------------|
A|---------------------------------------------------------|
E|--11-11-11-11-5-5-5/11-11-11-11-11---5----------------|		   
AcordesyTabs.com © 2008 Acordes y Tablaturas para guitarra. Tabs and Chords for guitar. Aviso Legal - Contacto
El uso de este sitio está sujeto a la aceptación de los términos y condiciones (46 usuarios online)