tablaturas, partituras y acordes para guitarra
Busca por banda/artista:
 
y/o título de la canción:
A B C D E F G H I J K L M N O P Q R S T U V W X Y Z 0 1 2 3 4 5 6 7 8 9 / Top 100 tabs
Categorías
Usuarios
usuario:
Darse de alta
password:
Artistas más visitados
Publicidad
TOP acordes y tablaturas de Kiss
:: Beth - Kiss


Estás en: Inicio > Letra K > Acordes y tablaturas de Kiss > Get all you can take
Get all you can take
de Kiss
Puntúa este acorde/tab:      
(0.9/5)
Reportar este acorde/tab
  Añadir a tus favoritos
  Imprimir
Tuned down 1/2-step

Comments: Pretty cool stuff. The bass follow the guitars around most of the
time but gets to go out on a few trips during the "bridge" and the solo.
It's all about the groove. Find it.


Key:
/    = slide up
    = slide down
b    = bend (whole step)
b^   = bend (1/2 step)
b^^  = bend (1 1/2 steps)
pb   = pre-bend
r    = release-bend
t    = tap with righthand finger
h    = hammer-on
p    = pull-off
~    = Vibrato
*    = Natural Harmonic
#(#) = Trill
**   = Artificial Harmonic
x    = Dead notes (no pitch)
P.M. = Palm mute (- -> underneath indicates which notes)
()  = Dive war
(/)  = Release war
Tp   = Tap wplectrum



Rhythm Fig. 1
                                                             
Gb|--------------------------------------------------------|
Db|--------------------------------------------5~--4-------|
Ab|--5h7-7-7-7------5--5-5--7---4p0--5p0--7p0--------7-5---|
Eb|-------------0------------------------------------------|



End 1
                                                        
Gb|--------------------------------------------------------|
Db|--------------------------------------------------------|
Ab|--5h7-7-7-7------5--5-5--7---4p0--5p0--7p0------0-------|
Eb|-------------0------------------------------2b^---------|


 
End 2
                                                       
Gb|--------------------------------------------------------|
Db|------------------------------------------------0-------|
Ab|--5h7-7-7-7------5--5-5--7---4p0--5p0--7p0--------------|
Eb|-------------0------------------------------2b^---------|



Rhythm Fig. 2a
                                                        
Gb|--------------------------------------------------------|
Db|--------------------------------------------------------|
Ab|-------------------------5------------------------------|
Eb|---5p3-3-5----5p3-3-5--x------5p3-3-5----5p3-0h2b^------|


                                                      
Gb|--------------------------------------------------------|
Db|--------------------------------------------------------|
Ab|-------------------------5------------------------------|
Eb|---5p3-3-5----5p3-3-5--x------5p3-3-5--------x-5-------|



Rhythm Fig. 2b
                                                     
Gb|--------------------------------------------------------|
Db|--------------------------------------------------------|
Ab|-------------------------5------------------------------|
Eb|---5p3-3-5----5p3-3-5--x------5p3-3-5----2b-------------|



Gb|--------------------------------------------------------|
Db|--------------------------------------------------------|
Ab|-------------------------5------------------------------|
Eb|---5p3-3-5----5p3-3-5--x------5p3-3-5--------x-5-------|



Rhythm Fig. 2c

Gb|--------------------------------------------------------|
Db|--------------------------------------------------------|
Ab|-------------------------5------------------------------|
Eb|---5p3-3-5----5p3-3-5--x------5p3-3-5----5p3-0h2b^------|


                                                    
Gb|--------------------------------------------------------|
Db|--------------------------------------------------------|
Ab|-------------------------5------------------------------|
Eb|---5p3-3-5----5p3-3-5--x------5p3-3-5-------------------|



Rhythm Fig. 3
                                                    
Gb|--------------------------------------------------------|
Db|--------------------------------------------------------|
Ab|--2----2------------------------------0----5------------|
Eb|----------0-1-2----2--0-2-3----3--0h2-------------------|



End 1
                                                    
Gb|--------------------------------------------------------|
Db|--------------------------------------------------------|
Ab|--2----2----------------------------x-5---x-0-----------|
Eb|----------0-1-2----2--0-2-3----3------------------------|



End 2
                                                    
Gb|--------------------------------------------------------|
Db|--------------------------------------------------------|
Ab|--2----2----------------------------------x-5-----------|
Eb|----------0-1-2----2--0-2-3----3----x-5-----------------|



Rhythm Fig. 4
                                           
Gb|--------------------------------------------------------|
Db|--------------------------------5-6-7-------------------|
Ab|--------------------------------------------------------|
Eb|--5-----------------5---------------------------------|
   < - - 3x - - >


Rhythm Fig. 5
                                                

Gb|--------------------------------------------------------|
Db|-------------5-6-7----------------5-6-7/-10-------------|
Ab|--------------------------------------------------------|
Eb|------5-------------------5---------------------------|


                                                    
Gb|-------------5h7-5p4------------------------------------|
Db|---------------------5---------------------------------|
Ab|--------------------------3p2---0----3p2---0------------|
Eb|------5----------------------3----------3--------------|



Rhythm Fig. 6
                                                   
Gb|--------------------------------------------------------|
Db|--------------------------------------------------------|
Ab|-------7------5h7-5----------7----5-5-----------------|
Eb|--0-------------------5---0---------------5-5-----------|


                                                    
Gb|--------------------------------------------------------|
Db|--------------------------------------------------------|
Ab|-------7----5-5---5-4-0---------7----5-5----------------|
Eb|--0---------------------3--0---------------5-5----------|


                                                               
Gb|---------------------10p9-------------------------------|
Db|-------------------8------10----------------------------|
Ab|--10---10--------8------------10----10-----------------|
Eb|------------8h10------------------------1-1-3--1-1-3--1-|


                                                     
Gb|--------------------------------------------------------|
Db|--------------------------------------------------------|
Ab|--10----10----8---3------------------------------------|
Eb|----------------------3--3--3--3--3--3--3--3--3---------|


                                                         
Gb|--------------------------------------------------------|
Db|--------------------15----------------------------------|
Ab|-----------------------13------------------------------|
Eb|--6--6--6--6--6--6/----------6--6--6--6--6--6--4-4-1----|


                                                        
Gb|--------------------------------------------------------|
Db|---------------------------8----8----------------------|
Ab|-------------------------------------x-3---x-5----------|
Eb|--6--6--6--6--6--6--6--6--------------------------------|



GET ALL YOU CAN TAKE
Stanley/Weissman

[Rhy. Fig 1 w/ End 1] (2x)

[Rhy. Fig 2a] (2x)
I didn't know 'bout the modern ways of life, I didn't really care 
I never gave a damn about the future, I never got my share 
Somebody said, boy your time's a wastin',
you're movin' much too slow 
So many things in life worth tastin',
so much you oughta know - look out 

[Rhy. Fig 3 w/ End 1]
Get down, fool around, if you got half a chance, you take it 
Ooh yeah, stand your ground, you gotta bend the rules to make it 
[Rhy. Fig 3 w/ End 2]
Hold tight, see the light, think of all the dues you're payin' 
So true, I'm tellin' you, wise up, can't you hear me sayin' 

[Rhy. Fig 1 w/ End 1] (2x)
You gotta get all you can take 
sing along, gotta keep on hummin' 
Stop waitin' for your lucky break - stop waitin', wastin' time 
What fuckin' difference does it make? - ooh, gotta keep it comin' 
You gotta get all you can take 
dontcha know I'm gonna take what's mine 

[Rhy. Fig 2a] (2x)
People lookin', eyes wide open, tell me what you see 
Bodies tired, minds 'a chokin', you gotta set 'em free 
Don't think about the race they're runnin',
they'll never let you in 
With all the rules, it's a race of fools,
and you can never win - look out 

[Rhy. Fig 3 w/ End 2]
Get down, fool around, think of all the dues you're payin' 
Oh yeah, stand your ground, wise up, can't you hear me sayin' 

[Rhy. Fig 1 w/ End 1]
You gotta get all you can take 
sing along, gotta keep on hummin' 
Stop waitin' for your lucky break - stop waitin', wastin' time 
[Rhy. Fig 1 w/ End 2]
What fuckin' difference does it make? - ooh, gotta keep it comin' 
You gotta get all you can take 
Ooooh! 

[Rhy. Fig 4] (3x)
(Yeah you know what I'm talking about,
ah just take a look around you) 
[Rhy. Fig 5]

[Rhy. Fig 6]

[Rhy. Fig 1 w/ End 1] (2x)
You gotta get all you can take 
sing along, gotta keep on hummin' 
Stop waitin' for your lucky break - stop waitin', wastin' time 
What fuckin' difference does it make? - ooh, gotta keep it comin' 
You gotta get all you can take 
Ah, dontcha know I'm gonna take what's mine

[Rhy. Fig 2b]
[Rhy. Fig 2c]		   
AcordesyTabs.com © 2008 Acordes y Tablaturas para guitarra. Tabs and Chords for guitar. Aviso Legal - Contacto
El uso de este sitio está sujeto a la aceptación de los términos y condiciones (32 usuarios online)