tablaturas, partituras y acordes para guitarra
Busca por banda/artista:
 
y/o título de la canción:
A B C D E F G H I J K L M N O P Q R S T U V W X Y Z 0 1 2 3 4 5 6 7 8 9 / Top 100 tabs
Categorías
Usuarios
usuario:
Darse de alta
password:
Artistas más visitados
Publicidad
TOP acordes y tablaturas de Kiss
:: Beth - Kiss


Getaway
de Kiss
Puntúa este acorde/tab:      
(0.1/5)
Reportar este acorde/tab
  Añadir a tus favoritos
  Imprimir
Tuned down 1/2-step

Comments: Not much to say. Gene outlines the chords like he usually does.
Mostly chord-tones but a few chromatic pick-ups and there¥s 7th in 
Rhy. Fig 4.


Key:
/    = slide up
    = slide down
b    = bend (whole step)
b^   = bend (1/2 step)
b^^  = bend (1 1/2 steps)
pb   = pre-bend
r    = release-bend
t    = tap with righthand finger
h    = hammer-on
p    = pull-off
~    = Vibrato
*    = Natural Harmonic
#(#) = Trill
**   = Artificial Harmonic
x    = Dead notes (no pitch)
P.M. = Palm mute (- -> underneath indicates which notes)
()  = Dive war
(/)  = Release war
Tp   = Tap wplectrum




Rhythm Fig. 1
                                                               
Gb|-------------------------------------------------------------|
Db|-------------------------------------------------------------|
Ab|---------------------------------5------------3----3---------|
Eb|--3----------------------------------------------------3-----|


                                                                    
Gb|-------------------------------------------------------------|
Db|--------5-----------------5----------------------------------|
Ab|--5--7--------------5--7--------------7--6--5----3----3------|
Eb|----------------------------------------------------------3--|



Rhythm Fig. 2a

Gb|-------------------------------------------------------------|
Db|--5----------------------------------------------------------|
Ab|---------------------------------5------------3----3---------|
Eb|-------------------------------------------------------3-----|


                                                                    
Gb|-------------------------------------------------------------|
Db|--------5-----------------5----------------------------------|
Ab|--5--7--------------5--7--------------7--6--5----3----3------|
Eb|----------------------------------------------------------3--|


Rhythm Fig. 2b

Gb|-------------------------------------------------------------|
Db|-------------------------------------------------------------|
Ab|---------------------------------5------------3----3---------|
Eb|--3----------------------------------------------------3-----|


                                                                    
Gb|-------------------------------------------------------------|
Db|--------5-----------------5----------------------------------|
Ab|--5--7--------------5--7--------------7--6--5----3----3------|
Eb|----------------------------------------------------------3--|



Rhythm Fig. 3
                                                                    
Gb|-----------------6-----9----6--------------------------------|
Db|--5--6----7---7-----7--------------3------5------------------|
Ab|-------------------------------------------------------------|
Eb|-------------------------------------------------------------|
             < - - - 3x - - - - >

                                               
Gb|---------6-----9----6----------------------------------------|
Db|---7---7-----7-----------------------------------------------|
Ab|-----------------------------3------5------------------------|
Eb|-------------------------------------------------------------|
     < - - - - 3x - - - - >

                                                
Gb|-------------------------------------------------------------|
Db|-----------------------------3------5------------------------|
Ab|--0----0--3-----0--0-----------------------------------------|
Eb|------------3--------3---------------------------------------|
     < - - - - 3x - - - - >

                                                                  
Gb|-------------------------------------------------------------|
Db|-------------------------------------------------------------|
Ab|--0----0--3-----0--0----------3------5-----------------------|
Eb|-------------3--------3--------------------------------------|
     < - - - - 3x - - - - >



Rhythm Fig. 4
                                                               
Gb|-------------------------------------5---3-2-0---------------|
Db|--------------------------2---5---2--------------------------|
Ab|----------------1-2-3--3-------------------------3-2-1-------|
Eb|--3-4-5---------------------------------------------------1--|
                      < - - - - - 3x - - - - - - >



Rhythm Fig. 5
                                                                     
Gb|-------------------------------------------------------------| 
Db|-------------------------------------------------------------| 
Ab|--1------------------------------1---------------------------| 
Eb|-----------1-------3----------------------1------------------| 


                                             
Gb|-------------------------------------------------------------|
Db|--------------------------------------/5---3-----------------|
Ab|----------------------------0--1----1-----------------/5---3-|
Eb|--3--3--3--3-3--3--3---3-3---------------------1----1--------|
   < - - - - - - - - - - - - - - 2x - - - - - - - - - - - - - - >

 
                                                 
Gb|----7--5--3--5--3--------------------------------------------|
Db|-------------------5--3----5--3------------------------------|
Ab|---------------------------------5---------------------------|
Eb|------------------------------------3------------------------|		   
AcordesyTabs.com © 2008 Acordes y Tablaturas para guitarra. Tabs and Chords for guitar. Aviso Legal - Contacto
El uso de este sitio está sujeto a la aceptación de los términos y condiciones (25 usuarios online)