tablaturas, partituras y acordes para guitarra
Busca por banda/artista:
 
y/o título de la canción:
A B C D E F G H I J K L M N O P Q R S T U V W X Y Z 0 1 2 3 4 5 6 7 8 9 / Top 100 tabs
Categorías
Usuarios
usuario:
Darse de alta
password:
Artistas más visitados
Publicidad
TOP acordes y tablaturas de Kiss
:: Beth - Kiss


Estás en: Inicio > Letra K > Acordes y tablaturas de Kiss > God gave rock'n roll to you
God gave rock'n roll to you
de Kiss
Puntúa este acorde/tab:      
(1/5)
Reportar este acorde/tab
  Añadir a tus favoritos
  Imprimir
Tuned down 1/2-step

Rhythm Fig. 1
                                       
Gb|--------------------------------------------------|
Db|--------------------------------------------------|
Ab|--------------------------------------------------|
Eb|--10--10--10--10--10--10---10--10--10--10--------|
     < - - - - - 2x - - - >

                                   

Gb|--------------------------------------------------|
Db|--------------------------------------------------|
Ab|--------------------------------------------------|
Eb|--3--3--3--3--3--3--3--3--3--3--3--3--3--3--3--1--|


                                                      
Gb|--------------------------------------------------|
Db|--------------------------------------------------|
Ab|--------------------------------------------------|
Eb|--1--1--1--1--1--1--1--1--1--1--1--1--1--1--1--1--|


                                                     
Gb|--------------------------------------------------|
Db|------------------12--------------------5--------|
Ab|--------------------------------------------------|
Eb|--10--10--10--10-------------3--3--3--3-----------|


                                                 
Gb|--------------------------------------------------|
Db|--------------5----------------------10----------|
Ab|--------------------------------------------------|
Eb|--3--3--3--3-------------8--8--8--8---------------|


                                                
Gb|--------------------------------------------------|
Db|--------------3----------------------8-----------|
Ab|--------------------------------------------------|
Eb|--1--1--1--1-------------6--6--6--6---------------|


                                                 
Gb|--------------------------------------------------|
Db|--------------5----------------------10----------|
Ab|--------------------------------------------------|
Eb|--3--3--3--3-------------8--8--8--8---------------|


                                                     
Gb|--------------------------------------------------|
Db|--------------7-------------------------12-------|
Ab|--------------------------------------------------|
Eb|--5--5--5--5------------10--10--10--10------------|


                                                
Gb|--------------------------------------------------|
Db|--------------------------------------------------|
Ab|--------------------------------------------------|
Eb|--3--------3----------3----3----3----3------------|


                                                    
Gb|--------------------------------------------------|
Db|--------------------------------------------------|
Ab|-------0----2----2----3----5----------------------|
Eb|--3-----------------------------------------------|








Rhythm Fig. 2
                                              
Gb|--------------------------------------------------|
Db|--------------------------------------------------|
Ab|--3------3--2----------0------0-------2--3--------|
Eb|---------------------------------3----------------|


                                            
Gb|--------------------------------------------------|
Db|--------------------------------------------------|
Ab|----------------1----3--------6-------------------|
Eb|--1--------4-----------------------3--------------|


                                               
Gb|--------------------------------------------------|
Db|-------2------------------------------------------|
Ab|--3-------3--2---------0------0-------2--3--------|
Eb|---------------------------------3----------------|


                                           
Gb|--------------------------------------------------|
Db|--------------------------------------------------|
Ab|--------------------------------------------------|
Eb|--1------1/-6----6-----8--------------------------|



Rhythm Fig. 3
                                          
Gb|--------------------------------------------------|
Db|-----------8-------------------8------------------|
Ab|--------------------------------------------------|
Eb|--1/------------------1---------------------------|


                                                 
Gb|--------------------------------------------------|
Db|--6-----6-6-5------------6-------6----------------|
Ab|------6-------8-6----------6---6------------------|
Eb|--------------------------------------------------|


                                          
Gb|--------------------------------------------------|
Db|-----------8------------------8-------------------|
Ab|--------------------------------------------------|
Eb|--1------------------1----------------------------|


                                                         
Gb|--------------------------------------------------|
Db|--6----6-6-5------------------------3-5--5-3-5-3--|
Ab|------6------8-6---/17---------------------------|
Eb|------------------------3--3--3--3----------------|




Rhythm Fig. 4
                                               
Gb|--------------------------------------------------|
Db|-------2------------------------------------------|
Ab|--3-------3--2---------0------0-------2--3--------|
Eb|---------------------------------3----------------|


                                               
Gb|--------------------------------------------------|
Db|--------------------------------------------------|
Ab|-----------------1-----3---/19---6---------------|
Eb|--1------1--4--------------------------3----------|


                                              
Gb|--------------------------------------------------|
Db|--------------------------------------------------|
Ab|--3------2h3-2---------0------0-------3-----------|
Eb|---------------------------------3----------------|


                                                 
Gb|--------------------------------13h15----13------|
Db|--------------------------------------------------|
Ab|------------6-------------------------------------|
Eb|--1------1/------6-----8--------------------------|




Rhythm Fig. 5
                                            
Gb|--------------------------------------------------|
Db|-----------8-----------------------8--------------|
Ab|--------------------------------------------------|
Eb|--1/------------------1----1--1-------------------|


                                              
Gb|--------------------------------------------------|
Db|--6---------------------6-------6-----------------|
Ab|---------3-5-6------------6---6-------------------|
Eb|--------------------------------------------------|


                                             
Gb|--------------------------------------------------|
Db|------------8--------------------8----------------|
Ab|--------------------------------------------------|
Eb|--1--1/----------------1----1-1-------------------|


                                                       
Gb|--------------------------------------------------|
Db|--6----6h8-6h8------------------------------------|
Ab|---------------6----------------------------------|
Eb|--------------------14--3--3--3--3--3-3-3--3--3--|


                                              
Gb|--------------------------------------------------|
Db|--------------------------------------------------|
Ab|----------------------14-------------------------|
Eb|--5--5--5--5--7--7--------------------------------|



Rhythm Fig. 6
                                              
Gb|--------------------------------------------------|
Db|--------------------------------------------------|
Ab|---------7--6-------------------------6--7--------|
Eb|--0--------------------9------9--7----------------|


                                                  
Gb|--------------------------------------------------|
Db|--------------------------------------------------|
Ab|-------------3----5-------------------------------|
Eb|--5/---17--------------0----12---3----7---------|


                                                
Gb|--------------------------------------------------|
Db|--------------------------------------------------|
Ab|---------7--6-------------------------------------|
Eb|--0-------------------9------9--7/---11--12------|


                                           
Gb|--------------------------------------------------|
Db|--------------------------------------------------|
Ab|------------------5-------------------------------|
Eb|--5----12---3------------------------------------|




Rhythm Fig. 7
                                           
Gb|--------------------------------------------------|
Db|--------------------------------------------------|
Ab|----------------5---------------------------------|
Eb|--0------5-------------0------5-------------------|


                                             
Gb|--------------------------------------------------|
Db|--5------4----------------------------------------|
Ab|----------------17-------------------5-----------|
Eb|------------------------0------5------------------|


                                          
Gb|--------------------------------------------------|
Db|----------------------5---------------------------|
Ab|-------------------------------5------------------|
Eb|--0------5----------------------------------------|


                                              
Gb|--------------------------------------------------|
Db|-----------------------7----7---------------------|
Ab|---------------------------------5----5-----------|
Eb|--1----0----5----5--------------------------------|


                                              
Gb|--7-----------------------------------------------|
Db|-------7----4-------------------------------------|
Ab|-----------------5--------------------------------|
Eb|--------------------------------------------------|



Rhythm Fig. 8
                                                      
Gb|--------------------------------------------------|
Db|--------------------------------------------------|
Ab|--------------------------------------------------|
Eb|--2--2--2--2--2--2--2--2--7--7--7--7--7--7--7--7--|


                           
Gb|--------------------------------------------------|
Db|--------------------------------------------------|
Ab|--------------------------------------------------|
Eb|--5--5--5--5--5--5--5--5/--10--10--10--10---------|
                              < - - 2x - - - >

                                   

Gb|--------------------------------------------------|
Db|-------5-------------5-------------------2--4--5--|
Ab|--------------------------------2--3--5-----------|
Eb|--3---------3--3--3-------3--5--------------------|


                                                    
Gb|--------------------------------------------------|
Db|--------------------------------------------------|
Ab|-------0----2----2----3----5----------------------|
Eb|--3-----------------------------------------------|



Rhythm Fig. 9
                                               
Gb|--------------------------------------------------|
Db|-------2------------------------------------------|
Ab|--3-------3--2----------0------0-------2--3-------|
Eb|----------------------------------3---------------|


                                             
Gb|--------------------------------------------------|
Db|--------------------------------------------------|
Ab|-----------------1------3--------6----------------|
Eb|--1------1--4-------------------------3-----------|


                                           
Gb|--------------------------------------------------|
Db|--------------------------------------------------|
Ab|--3------3--2----------0--------------------------|
Eb|--------------------------------3-----------------|


                                            
Gb|--------------------------------------------------|
Db|--------------------------------------------------|
Ab|-----------6-----------3------3--2----------------|
Eb|--1-------------6---------------------------------|


                                               
Gb|--------------------------------------------------|
Db|--------------------------------------------------|
Ab|--0------0-------2--3-------------------1---------|
Eb|------------3------------1------1--4--------------|


                                              
Gb|--------------------------------------------------|
Db|--------------------------------------------------|
Ab|--3------3--2---------0------0-------2--3---------|
Eb|--------------------------------3-----------------|


                                            
Gb|--------------------------------------------------|
Db|--------------------------------------------------|
Ab|-----------6-----------3------3--2----------------|
Eb|--1-------------6---------------------------------|


                                               
Gb|--------------------------------------------------|
Db|--------------------------------------------------|
Ab|--0------0-------2--3-------------------1---------|
Eb|------------3------------1------1--4--------------|


                                              
Gb|--------------------------------------------------|
Db|--------------------------------------------------|
Ab|--3------3--2----------0------0-------2--3--------|
Eb|---------------------------------3----------------|


                                            
Gb|--------------------------------------------------|
Db|--------------------------------------------------|
Ab|-----------6-----------3------3--2----------------|
Eb|--1-------------6---------------------------------|


                                              
Gb|--------------------------------------------------|
Db|--------------------------------------------------|
Ab|--0------0----------------------------1-----------|
Eb|------------3----------1------1--4----------------|
                                            (fade out)		   
AcordesyTabs.com © 2008 Acordes y Tablaturas para guitarra. Tabs and Chords for guitar. Aviso Legal - Contacto
El uso de este sitio está sujeto a la aceptación de los términos y condiciones (32 usuarios online)