tablaturas, partituras y acordes para guitarra
Busca por banda/artista:
 
y/o título de la canción:
A B C D E F G H I J K L M N O P Q R S T U V W X Y Z 0 1 2 3 4 5 6 7 8 9 / Top 100 tabs
Categorías
Usuarios
usuario:
Darse de alta
password:
Artistas más visitados
Publicidad
TOP acordes y tablaturas de Kiss
:: Beth - Kiss


Hate
de Kiss
Puntúa este acorde/tab:      
(0.2/5)
Reportar este acorde/tab
  Añadir a tus favoritos
  Imprimir
Drop-D tuning down 1/2-step

Comments: Mainly octaves and fifths, this bass-line is pretty easy stuff. 
As usual though, Gene goes crazy and slides up the fretboard at times.


Key:
/    = slide up
    = slide down
b    = bend (whole step)
b^   = bend (1/2 step)
b^^  = bend (1 1/2 steps)
pb   = pre-bend
r    = release-bend
t^   = tap with righthand finger
h^   = hammer-on
p^   = pull-off
~    = Vibrato
*    = Natural Harmonic
#(#) = Trill
**   = Artificial Harmonic
x    = Dead notes (no pitch)
P.M. = Palm mute (- -> underneath indicates which notes)
()  = Dive war
(/)  = Release war
Tp   = Tap wplectrum



Riff 1
                                                               
Gb||-------------------|-------------------|------------------||
Db||-------------------|-------------------|------------------||
Ab||-------------------|-------------------|------------------||
Db||--0----------------|-----------------3b|------------------||
			         Gradual bend


Riff 2
                                                                         
------------------------------------||
------------------------------------||
------------------------------------||
--(3)h5p3p0-5-6-5-0-6-7-6-0-5-6-5-3-||



Riff 3
                                                             
----------------------||
----------------------||
----------------------||
--0----1----2----3----||



Riff 4a
                                                                                     
----------------------------|-------7--7--5h7p5~--------|----------------------|
---------------3------------|---------------------7-5-3-|----------------------|
--------5--5-5----5-3-5-5-5-|---------------------------|----------------------|
--0--0----------------------|-0--0----------------------|-0----3---3-0--3----3-|


                                                                                   
------------------------|---------------------------|------------5h7p5---/14~--|
------------------------|-0--0--3--0---0--0--5p3-0--|-0--0-/7--7-------7-------|
------------------------|------------3--------------|--------------------------|
--0----3---3-0--3----3--|---------------------------|--------------------------|


                                                                     
------------------------|------------------------||
------------------------|------------------------||
------------------------|------------------------||
--0----3---3-0--3----3--|--0----3---3-0--3----3--||




Riff 4b
                                                                                    
--------------------------|-----------------------------|----------------------|
--------------5-3---------|-------5-3----5-3----5-3-----|----------------------|
--------5--5------5--5--5-|-----------5------5------5-3-|----------------------|
--0--0--------------------|-0--0------------------------|-0----3---3-0--3----3-|


                                                      
------------------------|--------7--7------5--7p5----|
------------------------|--0--0--------5h7--------7--|
------------------------|----------------------------|
--0----3---3-0--3----3--|----------------------------|


                                                                  
------------------------10-10-12-12-14~-|------------------------|
--0--0------10-12-12-12-----------------|------------------------|
--------12------------------------------|------------------------|
----------------------------------------|--0----3---3-0--3----3--|


                                                                                  
------------------------||
------------------------||
------------------------||
--0----3---3-0--3----3--||




Riff 5
                                                                             
-------------------------|-------------------------|------------------------|
-------------------------|-------------------------|------------------------|
-------------------------|-------------------------|------------------------|
--5----3---3-5-3-2----3--|--5----3---3-5-3-2----3--|--0----3---3-0--3----3--|


                                                                             
------------------------|-------------------------|-------------------------|
------------------------|-------------------------|-------------------------|
------------------------|-------------------------|-------------------------|
--0----3---3-0--3----3--|--5----3---3-5-3-2----3--|--5----3---3-5-3-2----3--|


                                                                                 
----------------------------------|--------------------------||
----------------------------------|--------------------------||
----------------------------------|--------------------------||
--8-8-8-8-8-8-8-8-7-7-7-7-7-7-7-7-|--6-6-6-6-6-6-6-5/--------||




Riff 6
                                                                         
------------------------|-----------------------|-----------------------|
------------------------|-----------------------|-----------------------|
------------------------|-----------------------|-----------------------|
--3h5p3p0-0-----------3h|---5p3p0-6-----------3h|---5p3p0-0-----------3h|


                                                                                 
-----------------------||
-----------------------||
-----------------------||
---5p3p0-2--------1----||



Riff 7
                     
-------------------||
-------------------||
-------------------||
--0----------------||




Hate
Simmons, Van Zen, Kulick

[Intro Riff 1]

[Riff 2]
Hate is what I am 
Cuz underneath this heart 
There beats the heart of man 

[Riff 3]
[Riff 4a]
You'll wear your crown 
When you're lyin' 6 feet underground 
Don'tcha think it's odd 
Man was created in the image of God 

[Riff 5]
All you martyrs and saviours 
Go through the same door 
Listen all you butchers, saints and sinners 
We've all been here before 

[Riff 2]
Yes, Hate is what I am 
Cuz underneath this heart 
There beats the heart of man 

[Riff 3]
[Riff 4b]
So you're lookin' for a saviour 
But I'm here to tell ya 
You gotta save yourself 
Lead a lamb to slaughter 
All you ever did was follow orders 

[Riff 5]
All you martyrs and saviours 
Go through the same door 
Listen all you butchers, saints and sinners 
We've all been here before 

[Riff 6]
[Riff 7]
[Solo with Riff 1]

[Riff 5]
All you martyrs and saviours 
Go through the same door 
Hey listen all you butchers, saints and sinners 
We've all been here before 

[Riff 1]
Hate 
HAATE! 
Yes, Hate is what I am 
Cuz underneath this heart 
There beats the heart of man 

[Riff 3]
Man 
MAAAN
[Riff 7]		   
AcordesyTabs.com © 2008 Acordes y Tablaturas para guitarra. Tabs and Chords for guitar. Aviso Legal - Contacto
El uso de este sitio está sujeto a la aceptación de los términos y condiciones (36 usuarios online)