tablaturas, partituras y acordes para guitarra
Busca por banda/artista:
 
y/o título de la canción:
A B C D E F G H I J K L M N O P Q R S T U V W X Y Z 0 1 2 3 4 5 6 7 8 9 / Top 100 tabs
Categorías
Usuarios
usuario:
Darse de alta
password:
Artistas más visitados
Publicidad
TOP acordes y tablaturas de Kiss
:: Beth - Kiss


Estás en: Inicio > Letra K > Acordes y tablaturas de Kiss > Hotter than hell
Hotter than hell
de Kiss
Puntúa este acorde/tab:      
(0.5/5)
Reportar este acorde/tab
  Añadir a tus favoritos
  Imprimir
Tuned down a whole-step to D

Comments: Well, it's actually a little higher than D but it's closer to D
than to Eb so... Nice bass line that basically follow the guitars for the
verse (although omitting certain things here and there for effect) and then
goes into a pretty cool pedalpoint-like ostinato in the chorus. One of Gene's
standard fills at the 12th position show up here again (compare the bass' 
entry on Almost human). 


Key:
/    = slide up
    = slide down
b    = bend (whole step)
b^   = bend (1/2 step)
b^^  = bend (1 1/2 steps)
pb   = pre-bend
r    = release-bend
t    = tap with righthand finger
h    = hammer-on
p    = pull-off
~    = Vibrato
*    = Natural Harmonic
#(#) = Trill
**   = Artificial Harmonic
x    = Dead notes (no pitch)
P.M. = Palm mute (- -> underneath indicates which notes)
()  = Dive war
(/)  = Release war
Tp   = Tap wplectrum





Rhythm Fig. 1
                                                  
F|---------------------------------------------------------|
C|---------------------------------------------------------|
G|--5--5-------------0-3p0---------------------------------|
D|--------3------0h3-------3-------------------------------|





Rhythm Fig. 2a
                                                
F|---------------------------------------------------------|
C|---------------------------------------------------------|
G|--0--0----------------5--5------------0-3p0--------------|
D|----------------------------------0h3-------3------------|


                                                       
F|---------------------------------------------------------|
C|------------5-7-7-7-5h7~---------------------------------|
G|--0--0--------------------5--5-------------0-3p0---------|
D|--------------------------------3------0h3-------3-------|



Rhythm Fig. 2b
                                          
F|---------------------------------------------------------|
C|---------------------------------------------------------|
G|--0--0----------------5--5-------------------------------|
D|---------------------------------------------------------|


                                                       
F|---------------------------------------------------------|
C|------------5-7-7-7-5h7~---------------------------------|
G|--0--0--------------------5--5-------------0-3p0---------|
D|--------------------------------3------0h3-------3-------|



Rhythm Fig. 3
                                                             
F|---------------------------------------------------------|
C|---------------------------------------------------------|
G|--0--0----------------5--5-------------------------------|
D|---------------------------------------------------------|
   < - - - - - - - 3x - - - - - - - - >

                                                
F|---------------------------------------------------------|
C|---------------------------------------------------------|
G|--0------------------5--5-------------0-3p0--------------|
D|---------------------------3------0h3-------3------------|



Rhythm Fig. 4
                                                             
F|---------------------------------------------------------|
C|---------------------------------------------------------|
G|--0--0----------------5--5-------------------------------|
D|---------------------------------------------------------|


                                                 
F|---------------------------------------------------------|
C|---------------------------------------------------------|
G|--0--0----------------5--5-------------0-3p0-------------|
D|----------------------------3------0h3-------3-----------|


                                              
F|---------------------------------------------------------|
C|---------------------------------------------------------|
G|--0--0------0--0-----------------------------------------|
D|------------------------3--3------3--3-------------------|


                                                  
F|---------------------------------------------------------|
C|----------------7----------------------------------------|
G|--5--5--5--5---------7-----------------------------------|
D|---------------------------0----0--2--0--3--0------------|



Rhythm Fig. 5
                                                               
F|---------------------------------------------------------|
C|-------------------------12h14--12h14--------12h14-------|
G|----------------------------------------12h14--------14-|
D|--5----3---3-5--3--2--0----------------------------------|
   < - - - - - 3x - - - - >

                                                    
F|---------------------------------------------------------|
C|---------------------------------------------------------|
G|---------------------------------------------------------|
D|--5----3---3-5--3--2--0---5----3---3-5--3--2--0----------|


End 1
                                                            
F|--7------------------------------------------------------|
C|-----------5----------7----------------------------------|
G|---------------------------------------------------------|
D|---------------------------------------------------------|


                                                           
F|---------------------------------------------------------|
C|---------------------------------------------------------|
G|--5------------------------------------------------------|
D|-----------3---------------------------------------------|


End 2
                                                            
F|---------------------------------------------------------|
C|---------------------------------------------------------|
G|--5-------------------0----------------------------------|
D|-----------3---------------------------------------------|


                                                           
F|---------------------------------------------------------|
C|---------------------------------------------------------|
G|--5------------------------------------------------------|
D|-----------3---------------------------------------------|



Rhythm Fig. 6
                                                 
F|---------------------------------------------------------|
C|---------------------------------------5-----------------|
G|-------------------------8-7--5--8----------------------|
D|--3h-5--5--3--5----5-------------------------------------|


                                                
F|---------------------------------------------------------|
C|----------------------------------5----------------------|
G|-------------------------8-7--5-------------------------|
D|--3h-5--5--3--5----5-------------------------------------|



Riff 1
                                                           
F|---------------------------------------------------------|
C|---------------------------------------------------------|
G|---------------------------------------------------------|
D|--5-----------------------------------------------------|



HOTTER THAN HELL 
Paul Stanley 

[Intro: Guitar only]
[Rhy. Fig 1]
[Rhy. Fig 2a]
Come on

[Rhy. Fig 3]
She looked good
She looked hotter than hell
All dressed in satins and lace
I looked at her and it was just too clear
I had to get on the case

[Rhy. Fig 4]
I said "Lady, oh lady, can I take you home
There's just so much we could do
I'll take you all around the whole wide world
Before the evening is through

[Rhy. Fig 5 w/ End 1]
Hot, hot, hotter than hell
You know she's gonna leave you well done
Hot, hot, hotter than hell
Burn you like the midday sun

[Rhy. Fig 2b]

[Rhy. Fig 4]
I asked her why she couldn't make up her mind
She said "You don't understand"
"I'd love to go, but there's something you should know"
She showed me her wedding band

[Rhy. Fig 5 w/ End 2] (2x)
Hot, hot, hotter than hell
You know she's gonna leave you well done
Hot, hot, hotter than hell
She'll burn you like the midday sun
Hot, hot, hotter than hell
You know she's gonna leave you well done
Hot, hot, hotter than hell
She'll burn you like the midday sun 

[Riff 1] 
[Rhy. Fig 6] (repeat and fade)		   
AcordesyTabs.com © 2008 Acordes y Tablaturas para guitarra. Tabs and Chords for guitar. Aviso Legal - Contacto
El uso de este sitio está sujeto a la aceptación de los términos y condiciones (21 usuarios online)