tablaturas, partituras y acordes para guitarra
Busca por banda/artista:
 
y/o título de la canción:
A B C D E F G H I J K L M N O P Q R S T U V W X Y Z 0 1 2 3 4 5 6 7 8 9 / Top 100 tabs
Categorías
Usuarios
usuario:
Darse de alta
password:
Artistas más visitados
Publicidad
TOP acordes y tablaturas de Kiss
:: Beth - Kiss


Estás en: Inicio > Letra K > Acordes y tablaturas de Kiss > I walk alone
I walk alone
de Kiss
Puntúa este acorde/tab:      
(0.4/5)
Reportar este acorde/tab
  Añadir a tus favoritos
  Imprimir
Drop-D tuning down 1/2-step

Comments: This verse is all about the bass. It might look ridiculous to have 
a 14-bar Riff 1 but I think it helps the presentation at the end. 

It doesn´t get as cluttered.

Key:
/    = slide up
    = slide down
b    = bend (whole step)
b^   = bend (1/2 step)
b^^  = bend (1 1/2 steps)
pb   = pre-bend
r    = release-bend
t^   = tap with righthand finger
h    = hammer-on
p    = pull-off
~    = Vibrato
*    = Natural Harmonic
#(#) = Trill
**   = Artificial Harmonic
x    = Dead notes (no pitch)
P.M. = Palm mute (- -> underneath indicates which notes)
()  = Dive war
(/)  = Release war
Tp   = Tap wplectrum

                                  


Riff 1 (verse)
                                                                                     
Gb||-------------------------|------------------------|------------------------|
Db||-------------------------|------------------------|------------------------|
Ab||-5--5--5--5--5--5--5--5--|-5--5--5--5--5--5--5--5-|-5--5--5--5--5--5--5--5-|
Db||-------------------------|------------------------|------------------------|


                                                                                
--------------------------|--------------------------|-------------------------|
--------------------------|--------------------------|-------------------------|
--5--5--5--5--5--5--5--0--|--2--2--2--2--2--2--2--2--|--3--3--3--3--3--3/-7----|
--------------------------|--------------------------|-------------------------|


                                                                                 
-------------------------|--------------------------|--------------------------|
-------------------------|--------------------------|--------------------------|
--5--5--5--5--5--5--5--5-|--5--5--5--5--5--5--5--5--|--5--5--5--5--5--5--5--5--|
-------------------------|--------------------------|--------------------------|


                                                                                 
-------------------------|--------------------------|--------------------------|
-------------------------|--------------------------|--------------------------|
--5--5--5--5--5--5--5--5-|--5--5--5--5--5--5--5--5--|--5--5--5--5--5--5--5--0--|
-------------------------|--------------------------|--------------------------|


                                                                        
--------------------------|-------------------------||
--------------------------|-------------------------||
--2--2--2--2--2--2--2--2--|--3--3--3--3--3--3/-7----||
--------------------------|-------------------------||



Riff 2
                                                                                         
---------------------------|----------------------||
---------------------------|----------------------||
-----------------------0h2-|--3---2---------------||
--0--0--0--0--0--0--0------|----------5--3--------||



Riff 3a
                                                                   
----------------------------||
----------------------------||
------------5---------5-----||
--0---0-5/7-----0-5/7----7--||



Riff 3b
                                                                        
---------------------------|------------------------||
---------------------3-----|------------------------||
-----------------3h5----5--|------------------------||
--3---3-3--3---x-----------|--2---2-2--2----2/-5----||



Riff 4
                                                                                  
---------------------|---------------------||
---------------------|---------------------||
--3------------15---|--2------0-----------||
---------------------|----------------5----||



Riff 5
                                                                        
-------------------------|--------------------------||
-------------------------|--------------------------||
-------------------------|--------------------------||
--3p-0----0--0--0--0--0--|--0--0--0--0--0--0--0--0--||


Riff 6a
                                                                            
------------------------|------------||
------------------------|------------||
----------------2---3---|--5---------||
--3--5--3--5------------|---------0--||



Riff 6b                                                                   
------------------------|----------------------||
------------------------|----------------------||
----5-------------------|----2---3---5---------||
---------0--3--5--3--5--|-------------------0--||



Riff 6c
                                                                          
------------------------|--------------5------|--0-----------------------|
------------------------|---------------------|-------2------------------|
----5-------------------|----2---3------------|------------4----3--------|
---------0--3--5--3--5--|---------------------|--------------------------|


                                                                                          
-----------------------------|-----------------------|-------------------------|
-----------------------------|-----------------------|-------------------------|
-3----3----3----1----1--1--1-|-1----1--1--1--1----1--|-1--1--1--1----1--1--1--1|
-----------------------------|-----------------------|-------------------------|


                                                                                 
-------------------|---------------------|-------------------||
-------------------|--2---2--------------|-------------------||
--0----------------|----------0----------|-------------------||
-------------------|---------------------|--0----------------||



Riff 7
                                                                           
---------------------------|---------------------------||
---------------------------|---------------------------||
----1-1-1-1---1-1-1-1---1--|----1-1-1-1---1-1-1-1---3--||
---------------------------|---------------------------||



Riff 8a
                                                                   
----------------------------||
----------------------------||
------------3---------3-----||
--0---0-3h5-----0-3h5----5--||



Riff 8b
                                                                                      
----------------------------||
------------5---------5-----||
--------5h7-------5h7----7--||
--5---5---------5-----------||




Riff 9
                                                                      
---------------------|---------------------|-------------------------|
---------------------|---------------------|-------------------------|
--3------------15---|--2------0-----------|-------------------------|
---------------------|----------------5----|--3p-0----0--0--0--0--0--|


                                                                            
-------------------------------|---------------------|---------------------||
-------------------------------|---------------------|---------------------||
--------------15h17----15h17---|--3------------------|--2------0-----------||
--0--0--0--0--------0----------|---------------------|----------------5----||



Riff 10
                                                 
----------------------|------------------------||
----------------------|------------------------||
-----/5-------/5------|--3---2-----------------||
--0-------0-----------|----------5~---3--5--3--||




I walk alone
Simmons, Kulick

[Intro: guitar only]

[Riff 1]
I know deep inside of me
There's a place but it's not plain to see
I belong, where no one else can be

I'm searching for myself again 
And here I'm all alone and when
I close my eyes, no one else can see

[Riff 2]
[Riff 3a]
I Walk Alone, can't you see?
I don't belong, Let me be
[Riff 3b]
Everything I dreamed of being is me
[Riff 3a]
[Riff 4]
And I got myself to lean on 
Got both my feet on the ground 

[Riff 1]
You don't know me, I don't know me
I can't see you, you can't see me
Close my eyes, leave the world behind

So I got no heart, got no home 
I got no somewhere I belong
I don't worry, everything's just fine


[Riff 2]
[Riff 3a]
I Walk Alone, can't you see?
I don't belong, let me be
[Riff 3b]
Everything I dreamed of being

[Riff 3a]
And I don't belong, can't you see?
I Walk Alone, let me be
[Riff 3b]
Everything I dreamed of being is me
[Riff 3a]
[Riff 4]
And I got myself to lean on 
I got both my feet on the ground
[Riff 5]
[Riff 6a]

[Riff 6b] (3x)
[Riff 6c]

[Riff 1]
So I got no heart, and I got no home
And I got no somewhere I belong
I don't worry, everything's just

[Riff 7]

[Riff 3a] (3x)
[Riff 8a]
[Riff 3a] (3x)
[Riff 8b] (2x)
[Riff 3a]

[Riff 9]
I got myself to lean on 
Got both my feet on the ground 
And I got myself to lean on 
Got both my feet on the ground 

[Riff 10]

Cause I know deep inside of me 
There's a place but it's not plain to see
Where I belong, where no one else can be

And I'm searchin' for myself again
And here I'm all alone and when
I close my eyes, and no one else can see

[Riff 10]		   
AcordesyTabs.com © 2008 Acordes y Tablaturas para guitarra. Tabs and Chords for guitar. Aviso Legal - Contacto
El uso de este sitio está sujeto a la aceptación de los términos y condiciones (12 usuarios online)