tablaturas, partituras y acordes para guitarra
Busca por banda/artista:
 
y/o título de la canción:
A B C D E F G H I J K L M N O P Q R S T U V W X Y Z 0 1 2 3 4 5 6 7 8 9 / Top 100 tabs
Categorías
Usuarios
usuario:
Darse de alta
password:
Artistas más visitados
Publicidad
TOP acordes y tablaturas de Kiss
:: Beth - Kiss


Estás en: Inicio > Letra K > Acordes y tablaturas de Kiss > I want you
I want you
de Kiss
Puntúa este acorde/tab:      
(0.2/5)
Reportar este acorde/tab
  Añadir a tus favoritos
  Imprimir
Tuned down 1/2-step

Comments: The bass pretty much follows the guitars here which isn¥t
surprising since the song is riff-based.

Key:
/    = slide up
    = slide down
b    = bend (whole step)
b^   = bend (1/2 step)
b^^  = bend (1 1/2 steps)
pb   = pre-bend
r    = release-bend
t    = tap with righthand finger
h    = hammer-on
p    = pull-off
~    = Vibrato
*    = Natural Harmonic
#(#) = Trill
**   = Artificial Harmonic
x    = Dead notes (no pitch)
P.M. = Palm mute (- -> underneath indicates which notes)
()  = Dive war
(/)  = Release war
Tp   = Tap wplectrum



Rhythm Fig. 1
                                                       
Gb|---------------------------------------------------|
Db|---------------------------------------------------|
Ab|--3--3--3--3--3--3--3--3---5--5--5--5--5-----------|
Eb|---------------------------------------------------|
    < - - - - 2x - - - - - >  < - 2x - >


Rhythm Fig. 2
                                                     
Gb|---------------------------------------------------|
Db|----------------------5~---------------------------|
Ab|--------7~----------------------7~---------5--5----|
Eb|--0---0------0--5-6-7-----0---0------3--3----------|



Rhythm Fig. 3
                                                       
Gb|---------------------------------------------------|
Db|----------------------5~---------------------------|
Ab|--------7~----------------------7~---7-5-----------|
Eb|--0---0------0--5-6-7-----0---0----------7-6-5-2~--|



Rhythm Fig. 4
                                                       
Gb|---------------------------------------------------|
Db|----------------------5~---------------------5--7--|
Ab|--------7~----------------------7~-----------------|
Eb|--0---0------0--5-6-7-----0---0------0-5-6-7-------|



Rhythm Fig. 5
                                                    
Gb|------------------------------9------------9-------|
Db|---------------------------------------------------|
Ab|----------------------7-7-7-7------7-7-7-7---------|
Eb|--3----3----5----5---------------------------------|



Rhythm Fig. 6
                                              
Gb|---------------------------------------------------|
Db|---------------------------------------------------|
Ab|-----------------------3----3----2----2------------|
Eb|--3----3----5----5---------------------------------|


                                                   
Gb|---------------------------------------------------|
Db|---------------------------------------------------|
Ab|---------------------------------------------------|
Eb|--5----5----3----3-----7-7-7-7-7-7-7-7-7-----------|



Rhythm Fig. 7
                                              
Gb|---------------------------------------------------|
Db|---------------------------------------------------|
Ab|-----------------------3----3----2----2------------|
Eb|--3----3----5----5---------------------------------|


                                              
Gb|---------------------------------------------------|
Db|---------------------------------------------------|
Ab|---------------------------------------------------|
Eb|--5----5----3----3-----7---5---3---2------------|





Rhythm Fig. 8
                                                        
Gb|----------9--------------------------9-------------|
Db|---------------------------------------------------|
Ab|--7-7-7-7------7-7-7-7-7-5---7-7-7-7-----------5---|
Eb|------------------------------------------5--------|


                                                         
Gb|---------9-------------------------9---------------|
Db|---------------------------------------------------|
Ab|--7-7-7-7-----7-7-7-7-7-5---7-7-7-7----------3/5---|
Eb|----------------------------------------5----------|


                                                         
Gb|---------9-------------------------9---------------|
Db|---------------------------------------------------|
Ab|--7-7-7-7-----7-7-7-7-7-5---7-7-7-7----------x-5---|
Eb|----------------------------------------5----------|


                                                            
Gb|---------9------------------------9----------------|
Db|---------------------------------------------------|
Ab|--7-7-7-7----7-7-7-7-7-5---7-7-7-7----7-5----------|
Eb|------------------------------------------7-6-5-2~-|



I WANT YOU
Paul Stanley

[Guitar only]
In the morning I raise my head
And I'm thinkin' of days gone by
And the thing I want out of life is

[Rhy. Fig 1]

[Rhy. Fig 2]
I want you (I want you)
[Rhy. Fig 3]
I want you (I want you)

[Rhy. Fig 5] (2x)
You can run, you can hide
But you never get away
You can lie and deny
But you know you're gonna pay

[Rhy. Fig 6]
Never loved, never thought you could
Treat you right, girl, you know I would
You can fight but tonight
There's nothin' you can do

[Rhy. Fig 2]
I want you (I want you)
[Rhy. Fig 3]
Baby, baby, babe, I want you (I want you)

[Rhy. Fig 5] (2x)
You can walk in a haze
You can travel till you die
You can live in a dream
And your life will pass you by

[Rhy. Fig 6]
Every day that you hesitate
You're never changin' the hands of fate
You can fight but tonight
There's nothing you can do

[Rhy. Fig 2] (2x)
I want you (I want you)
Baby, baby, babe I want you (I want you)

[Rhy. Fig 8]
[Rhy. Fig 7]

[Guitar only]
In the morning I raise my head
And I'm thinkin' of days gone by
And the thing I want out of life is

[Rhy. Fig 1] (w/ flanger)

[Rhy. Fig 2]
I want you (I want you)
[Rhy. Fig 3] (2x)
Baby, baby, babe I want you (I want you)
Baby, baby, babe I want you (I want you)

[Rhy. Fig 2] (repeat and fade)
Baby, baby, babe I want you (I want you)
Baby, baby, babe I want you (I want you)
I want you (I want you)
I want you (I want you)
I want you (I want you)
I want you (I want you)
Ah (I want you) (I want you)		   
AcordesyTabs.com © 2008 Acordes y Tablaturas para guitarra. Tabs and Chords for guitar. Aviso Legal - Contacto
El uso de este sitio está sujeto a la aceptación de los términos y condiciones (36 usuarios online)