tablaturas, partituras y acordes para guitarra
Busca por banda/artista:
 
y/o título de la canción:
A B C D E F G H I J K L M N O P Q R S T U V W X Y Z 0 1 2 3 4 5 6 7 8 9 / Top 100 tabs
Categorías
Usuarios
usuario:
Darse de alta
password:
Artistas más visitados
Publicidad
TOP acordes y tablaturas de Kiss
:: Beth - Kiss


Estás en: Inicio > Letra K > Acordes y tablaturas de Kiss > Into the void
Into the void
de Kiss
Puntúa este acorde/tab:      
(0.7/5)
Reportar este acorde/tab
  Añadir a tus favoritos
  Imprimir
Eb Tuning

Key:
/   =slide up
   =slide down
b^  =bend (1/2 step)
h^  =hammer-on

  Fig. 1A                           | Fig. 1B
  
Gb|---------------------------------|--------------------------------------------------|
Db|---------------------------------|----------------------------------0-2---5---------|
Ab|---------------------------------|----------------------------0-1-2-----2-----------|
Eb|--0-0---0-0-0-----0-0---0-3-2-0--|--0-0---0-0-0---0-0--15--------------------------|
                                     <-----4X----->

  Fig. 2                                  | Fig.2A     | Fig. 2B
                                          |            |
Gb|---------------------------------------|------------|-------------------------------|
Db|---------------------------------------|------------|-------------------------------|
Ab|-----7---7-7-7-7-----5-7-5-7--4-5-5-4--|------------|-------------------------------|
Eb|---0-----------------------------------|---3--------|---3-------------------------|
           

  Fig. 2C

Gb|------------------------------------------------------------------------------------|
Db|------------------------------------------------------------------------------------|
Ab|--0-2--5-5-5-5-5-5-5-5-----------------5-5-5-5-5-5-5-5------------------------------|
Eb|-----------------------5-5-5-5-5-5-5-5------------------0-0-0-0-0-0-0-0-------------|

  Fig. 2C (cont.)

Gb|------------------------------------------------------------------------------------|
Db|------------------------------------------------------------------------------------|
Ab|--0-2--5-5-5-5-5-5-5-5--------------------------------------------------------------|
Eb|------------------------5-5-5-5-5-5-5-5---7-7-7-7-7-7-7-7-7-7-7-7-7-7-7-7-----------|

  Fig. 3

Gb|------------------------------------------------------------------------------------|
Db|------------------------------------------------------------------------------------|
Ab|-------------------5-5-5-5-5-5-5-5---7-8-8-8-8-8-8-8---10-10-10-10-10-10-10-10------|
Eb|--5-5-5-5-5-5-5-5-------------------------------------------------------------------|
    <------------------------------------4X---------------------------------------->






  Fig. 4

Gb|------------------------------------------------------------------------------------|
Db|------------------------------------------------------------------------------------|
Ab|--10---8h^10---8h^10----------------------------------------------------------------|
Eb|----------------------15-----------------------------------------------------------|


  Fig. 5

Gb|------------------------------------------------------------------------------------|
Db|-----------------------------/-----------------------------------------------------|
Ab|----7-7-7-5-------7--7-7-7-7--------------------------------------------------------|
Eb|--0---------3b^-0-------------------------------------------------------------------|


  Fig. 6 (Guitar Solo)

Gb|------------------------------------------------------------------------------------|
Db|---------------------5-5---5h^7-5-------------------------7-------------------------|
Ab|-------------------------7--------7-------------------7-9----5-5-7/12-12-12-10------|
Eb|--5-5-5-5-5-5-5-5---------------------7-7-7-7-7-7-7-7-------------------------------|
   <----3X----------->                  <-------2X------>

  Fig. 6 (cont)

Gb|------------------------------------------------------------------------------------|
Db|------------------------------------------------------------------------------------|
Ab|----7-7-7-7-7-7-7-7---------7-7-7-7-7-7-7-7-----------------------------------------|
Eb|--0------------------3b^-0---------------------15----------------------------------|
      <------2X------->       <-------2X------->

  Fig. 7

Gb|------------------------------------------------------------------------------------|
Db|------------------------------------------------------------------------------------|
Ab|------------------------------------------------------------------------------------|
Eb|--0-0-0-0-0-0-0-0---0-0-0-0-0-0-0-0-------------------------------------------------|
    <---------------2X----------------->

  Fig. 8

Gb|------------------------------------------------------------------------------------|
Db|------------------------------------------------------------------------------------|
Ab|--------------------5-5-5-5-5-5-5-5---7-8-8-8-8-8-8-8---10-10-10-10-10-10-10-10-----|
Eb|--5-5-5-5-5-5-5-5-------------------------------------------------------------------|
    <------------------------------------6X----------------------------------------->

  Fig. 9

Gb|------------------------------------------------------------------------------------|
Db|------------------------------------------------------------------------------------|
Ab|--10--8h^10-------------------------------------------------------------------------|
Eb|-------------15---0-0--0-0-0---0-0---0-3-2-0---------------------------------------|





  Fig. 9 (cont)

Gb|------------------------------------------------------------------------------------|
Db|--------------------------------0-2-0--5--------------------------------------------|
Ab|--------------------------0-1-2-----------7----------------------------------------|
Eb|--0-0--0-0-0---0-0--15-------------------------------------------------------------|
    <---4X----->



Into The Void by Frehley & Cochran

  Fig. 1A,1B

  Fig. 2&2A,then Fig.2&2B
I'm losing power and I don't know why
Not really sure If I'll live or die
I wanna leave , But I can't get away

  Fig. 2&2C
It's a strange sensation
Out of of control, Being by myself
I feel this gravitation
Caught like a magnet
And I'm being pulled

  Fig. 3&4
Into the void
I wanna get away,get away
Into the void
I'm being pulled, being pulled down
Into the void
This place is spinnin, spinnin'me round
Into the void
Feel like I'm being pulled
Into a black hole

  Fig. 2&2A then Fig. 2&2B
This crazy feeling's
Screwing with my head
I'm overloaded
And my gauges are red
State of confusion's
Gotta hold on me

  Fig. 2&2C
I feel a hesitation
I'm being drawn,falling right off the track
Don't like this situation
Caught like a magnet
And I'm being pulled

  Fig. 3,4&5
Into the void 
I wanna get away,get away
Into the void
My head is spinning,spinning me round,round
Into the void
This force is getting,getting me stronger
Into the void
I feel like I'm being pulled
Into a blackhole
Into the void

  Fig. 6&7 (Guitar Solo)

  Fig. 8&9
Into the void
Don't like this feeling,I'm being pulled down
Into the void
I wanna get away,get away
Into the void
Feel like I'm spinning,spinning around
Into the void
I'm being pulled,beingpulled down
Down,Down,Down
Into the void
Get away,Get away
Into the void
Feel like I'm being pulled
Into a black hole
Into the void		   
AcordesyTabs.com © 2008 Acordes y Tablaturas para guitarra. Tabs and Chords for guitar. Aviso Legal - Contacto
El uso de este sitio está sujeto a la aceptación de los términos y condiciones (42 usuarios online)