tablaturas, partituras y acordes para guitarra
Busca por banda/artista:
 
y/o título de la canción:
A B C D E F G H I J K L M N O P Q R S T U V W X Y Z 0 1 2 3 4 5 6 7 8 9 / Top 100 tabs
Categorías
Usuarios
usuario:
Darse de alta
password:
Artistas más visitados
Publicidad
TOP acordes y tablaturas de Kiss
:: Beth - Kiss


Jungle
de Kiss
Puntúa este acorde/tab:      
(0.1/5)
Reportar este acorde/tab
  Añadir a tus favoritos
  Imprimir
Dropped D Tuning

Key:
/    = slide up
    = slide down
b    = bend (whole step)
b^   = bend (1/2 step)
b^^  = bend (1 1/2 steps)
pb   = pre-bend
r    = release-bend
r^   = release-bend half-step
h^   = hammer-on
p^   = pull-off
~    = Vibrato
*    = Natural Harmonic
#(#) = Trill
**   = Artificial Harmonic
x    = Muted String (Palm Muting)
X    = Muted String (Fretboard Muting)


Rhythm Fig. 1

G|----------------------------------------------------|
D|----------------------------------------------------|
A|----------------------------------------------------|
D|-12---0h^3--3h^5--0h^3--3h^5--3h^5-5---------------|


Rhythm Fig. 2

G|----------------------------------------------------|
D|----------------------------------------------------|
A|----------------------------------------------------|
D|-0h^3--3h^5--0h^3--3h^5--3h^5-5---------------------|


Rhythm Fig. 3

G|----------------------------------------------------|
D|----------------------------------------------------|
A|----------------------------------------------------|
D|-5-0---0-3--0-5--0-3-------------------------------|


Rhythm Fig. 4

G|----------------------------------------------------|
D|--------------------------------------------3p^0----|
A|------------------1--1-1-1-1h^3-3----------------1--|
D|-0-0h^3-0-0-0h^3-------------------5--5-5-5---------|


Rhythm Fig. 5

G|----------------------------------------------------|
D|----------------------------------------------------|
A|-1--1-1-1-1h^3-3------------------------------------|
D|----------------------------------------------------|


Rhythm Fig. 6

G|------------------------------3-------3-------------|
D|----------------------------------------------------|
A|--------------------------1-1---1-1-1----------/10--|
D|-0-0-3/12-0-0-0-3/12-----------------5-5-5------|


G|----------------------------------------------------|
D|----------------------------------------------------|
A|---/10-8--------------------------------------------|
D|-5-------12-----------------------------------------|


Rhythm Fig. 7

G|----------------------------------------------------|
D|----------------------------------------------------|
A|----------------------------------------------------|
D|-0-2-2-0-2-0-2-0-2-0-2-3-0-2-2-0-2-0-2-5-5-5-5-4-2--|


G|----------------------------------------------------|
D|----------------------------------------------------|
A|----------------------------------------------------|
D|-0-2-2-0-2-0-2-0-2-0-2-3-0-2-2-0-2-0-5--------------|
   <--------------- 2 x --------------->

G|----------------------------------------------------|
D|----------------------------------------------------|
A|----------------------------------------------------|
D|-0-2-2-0-2-0-5---0-2-0-2-0-3------------------------|


THE JUNGLE

[Rhythm Fig. 1][Rhythm Fig. 2][Rhythm Fig. 2][Rhythm Fig. 2]
([Rhythm Fig. 2][Rhythm Fig. 2][Rhythm Fig. 2][Rhythm Fig. 2])2x w/ guitar

[Rhythm Fig. 2]4x
Here I go,

[Rhythm Fig. 2]4x
Down below

[Rhythm Fig. 3]
The sun is goin' down

[Rhythm Fig. 3]
A jungle comes alive

[Rhythm Fig. 3]
The beast is waking up

[Rhythm Fig. 3]
To take another life

[Rhythm Fig. 2]4x
I can't sleep

[Rhythm Fig. 2]4x
In too deep

[Rhythm Fig. 3]
The man with nothing left

[Rhythm Fig. 3]
Without a place to hide

[Rhythm Fig. 3]
Will take a final breath

[Rhythm Fig. 3]
And tumble in the night

[Rhythm Fig. 4][Rhythm Fig. 5]
Yeah
Someone's safe at home
Someone dies alone
Someone's fallen prey

[Rhythm Fig. 6]([Rhythm Fig. 5]2x)
Yeah
Some will take their fill
Like lions to the kill
Livin' day to day
Whoooaaaaaoooohhhh, The Jungle

[Rhythm Fig. 2]4x

[Rhythm Fig. 2]4x
Mothers mourn

[Rhythm Fig. 2]4x
Fathers groan  

[Rhythm Fig. 3]
The child takes a hit

[Rhythm Fig. 3]
And then he starts to cry

[Rhythm Fig. 3]
A mother never hears

[Rhythm Fig. 3]
Her baby's last goodbye

[Rhythm Fig. 4][Rhythm Fig. 5]
Yeah
Someone's safe at home
Someone dies alone
Someone's fallen prey

[Rhythm Fig. 6]([Rhythm Fig. 5]2x)
Yeah
Some will take their fill
Like lions to the kill
Livin' day to day
Whoooaaaaaoooohhhh, The Jungle

[Rhythm Fig. 7]

[Rhythm Fig. 2]8x w/ Guitar Solo

[Rhythm Fig. 3]
The sun is coming up

[Rhythm Fig. 3]
A city comes alive

[Rhythm Fig. 3]
The lamb will never see

[Rhythm Fig. 3]
A jungle in the sky


[Rhythm Fig. 4][Rhythm Fig. 5]
Yeah
Someone's safe at home
Someone dies alone
Someone's falling prey

[Rhythm Fig. 6]([Rhythm Fig. 5]2x)
Yeah
Some will take their fill
Like lions to the kill
Livin' day to day

[Rhythm Fig. 6]([Rhythm Fig. 5]2x)
Yeah
Someone dies alone
Someone's safe at home
All is flesh and bone
Whoooaaaaaoooohhhh, The Jungle

[Rhythm Fig. 2] 	Until the end of the song.
			A lot of the 4th measure's are short riff's.
			Fill them in as you like.		   
AcordesyTabs.com © 2008 Acordes y Tablaturas para guitarra. Tabs and Chords for guitar. Aviso Legal - Contacto
El uso de este sitio está sujeto a la aceptación de los términos y condiciones (30 usuarios online)