tablaturas, partituras y acordes para guitarra
Busca por banda/artista:
 
y/o título de la canción:
A B C D E F G H I J K L M N O P Q R S T U V W X Y Z 0 1 2 3 4 5 6 7 8 9 / Top 100 tabs
Categorías
Usuarios
usuario:
Darse de alta
password:
Artistas más visitados
Publicidad
TOP acordes y tablaturas de Kiss
:: Beth - Kiss


Estás en: Inicio > Letra K > Acordes y tablaturas de Kiss > Keep me comin
Keep me comin
de Kiss
Puntúa este acorde/tab:      
(0.6/5)
Reportar este acorde/tab
  Añadir a tus favoritos
  Imprimir
Standard tuning

Comments: I'm guessing Paul played the bass on this one. It's in line with 
his rather sparse style on bass. 


Key:
/    = slide up
    = slide down
b    = bend (whole step)
b^   = bend (1/2 step)
b^^  = bend (1 1/2 steps)
pb   = pre-bend
r    = release-bend
t    = tap with righthand finger
h    = hammer-on
p    = pull-off
~    = Vibrato
*    = Natural Harmonic
#(#) = Trill
**   = Artificial Harmonic
x    = Dead notes (no pitch)
P.M. = Palm mute (- -> underneath indicates which notes)
()  = Dive war
(/)  = Release war
Tp   = Tap wplectrum


Rhythm Fig. 1a
                                                             
G|-------------------------------------------------------|
D|--------------------------------------------2------0---|
A|-----7---5---2p0-0-4p0-0-5p0-------------------0h2---2-|
E|--0---------------------------0-------0-0h3------------|
   < - - - - - - 3x - - - - - >


Rhythm Fig. 1b
                                                       
G|-------------------------------------------------------|
D|-------------------------------------------------------|
A|-----7---5---2p0-0-4p0-0-5p0-----7---5---7----7------|
E|--0---------------------------0------------------------|
   < - - - - - - 3x - - - - - >


Rhythm Fig. 1c
                                                       
G|-------------------------------------------------------|
D|-------------------------------------------------------|
A|-----7---5---2p0-0-4p0-0-5p0-----------5-2--5--------|
E|--0---------------------------0-----------------3------|
   < - - - - - - 3x - - - - - >



Rhythm Fig. 1d
                                                 
G|-------------------------------------------------------|
D|-------------------------------------------------------|
A|-----7---5---2p0-0-4p0-0-5p0---------------------------|
E|--0----------------------------------------------------|
   < - - - - - - 4x - - - - - >



Rhythm Fig. 2
                                                
G|-------------------------------------------------------|
D|-------------------------------------------------------|
A|--3-------------------7-7-7-7---7-7-7-7--7-------------|
E|-------------------------------------------------------|


                                                
G|-------------------------------------------------------|
D|-------------------------------------------------------|
A|--5-------------------7-7-7-7---7-7-7-7--5-------------|
E|-------------------------------------------------------|


                                                
G|-------------------------------------------------------|
D|-------------------------------------------------------|
A|--3-------------------7-7-7-7---7-7-7-7--7-------------|
E|-------------------------------------------------------|


                                              
G|-------------------------------------------------------|
D|-------------------------------------------------------|
A|--5---------------------------5-5-5-5-5-5-5------------|
E|-------------------------------------------------------|



Rhythm Fig. 3
                                                       
G|-------------------------------------------------------|
D|-------------------------------------------------------|
A|-----5---5---5---7---------5---5---2p0-0-4p0-0-5p0----|
E|--0------------------3---0-----------------------------|
   < - - - - 3x - - - - >




Rhythm Fig. 4
                                         
G|-------------------------------------------------------|
D|-------------------------------------------------------|
A|-------------------------------------------------------|
E|--0---------------0--0---------------------------------|


                                                   
G|-------------------------------------------------------|
D|-------------------------------------------------------|
A|--------------------------------2p0-0-4p0-0-5p0--------|
E|--0---------------0--0----12--------------------------|



Rhythm Fig. 5
                                              
G|-------------------------------------------------------|
D|-------------------------------------------------------|
A|--2------------------5-2-4p2-2---0-------------------|
E|-------------------------------------------------------|
  < 3x >


End 1
                                             
G|-------------------------------------------------------|
D|-------------------------------------------------------|
A|-----------5-5-5-5-5-5-5-------------------------------|
E|-------------------------------------------------------|


Rhythm Fig. 6
                                          
G|-------------------------------------------------------|
D|-------------------------------------------------------|
A|-------------------------------------------------------|
E|--0-----------0-0--------------0-----------------------|


                                                       
G|-------------------------------------------------------|
D|-------------------------------------------------------|
A|-----5---5---5---7--------5---5---2p0-0-4p0-0-5p0-----|
E|--0------------------3--0------------------------------|


                                                  
G|-------------------------------------------------------|
D|-------------------------------------------------------|
A|-----5---5---5---7--------5---5---5---7--------------|
E|--0------------------3--0------------------3-----------|


                                                  
G|-------------------------------------------------------|
D|-------------------------------------------------------|
A|------------------------------2p0-0-4p0-0-5p0----------|
E|--0-------0-0--------0---------------------------------|


                                                   
G|-------------------------------------------------------|
D|-------------------------------------------------------|
A|-----5---5---5---7--------5---5---5---7--------------|
E|--0------------------3--0------------------3-----------|
                                                Fade out


Riff 1

G|-------------------------------------------------------|
D|-------------------------------------------------------|
A|-------------------------------------------------------|
E|--12--------------------------------------------------|




KEEP ME COMIN'
Paul Stanley, Adam Mitchell

[Intro: Guitar only]
[Riff 1]

[Rhy. Fig 1a] 
I know what you're like, you're not sleepin' at night
I know you're losing control
[Rhy. Fig 1b]
I know your plans where you're keeping your hands
I know it's taking its toll

[Rhy. Fig 2]
Sweet little innocent girl, making your way in this world
Something you're feeling tonight tells you what's wrong and what's right

[Rhy. Fig 3] (2x)
You gotta keep me comin' (keep me comin')
Keep me comin' (keep me comin')
You gotta keep me comin' (keep me comin')
Keep me comin' babe (keep me comin')

[Rhy. Fig 4]

[Rhy. Fig 1c]
Hands on my shoulders now, you're getting bolder
Your fears are slipping away
[Rhy. Fig 1b]
Each little bite lets me know that you're ripe
You're thinking maybe you'll stay

[Rhy. Fig 2]
Now that you're burning to know, how far you're willing to go
Now that it's under your skin, now that you're lettin' me in

[Rhy. Fig 3] 
You gotta keep me comin' (keep me comin')
Keep me comin' (keep me comin')
You gotta keep me comin' (keep me comin')
Keep me comin' babe (keep me comin')

[Rhy. Fig 3]
You gotta keep me comin' (keep me comin')
Keep me comin' (keep me comin')
You gotta keep me comin' (keep me comin')
Keep me comin' babe (keep me comin')

[Rhy. Fig 5]
Ooh yeah, comin, comin'

[Solo over  Rhy. Fig 1d (2x)]

[Rhy. Fig 5 w/ End 1]
Ooh yeah, right here, right now

[Rhy. Fig 3] (repeat and fade)
You gotta keep me comin' (keep me comin')
Keep me comin' (keep me comin')
You gotta keep me comin' (keep me comin')
Keep me comin' babe (keep me comin')

[Rhy. Fig 6]		   
AcordesyTabs.com © 2008 Acordes y Tablaturas para guitarra. Tabs and Chords for guitar. Aviso Legal - Contacto
El uso de este sitio está sujeto a la aceptación de los términos y condiciones (36 usuarios online)