tablaturas, partituras y acordes para guitarra
Busca por banda/artista:
 
y/o título de la canción:
A B C D E F G H I J K L M N O P Q R S T U V W X Y Z 0 1 2 3 4 5 6 7 8 9 / Top 100 tabs
Categorías
Usuarios
usuario:
Darse de alta
password:
Artistas más visitados
Publicidad
TOP acordes y tablaturas de Kiss
:: Beth - Kiss


Estás en: Inicio > Letra K > Acordes y tablaturas de Kiss > Ladies in waiting
Ladies in waiting
de Kiss
Puntúa este acorde/tab:      
(0.8/5)
Reportar este acorde/tab
  Añadir a tus favoritos
  Imprimir
Tuned down 1/2-step

Comments: Since the guitars are so crowded on this track, Gene has taken
the easy way. He stays on the roots most of the time and only throws in
some chromatics in the chorus. The A minor pentatonic riff that goes against
the A-chord is a bit odd though. Thankfully the C ends up under the D/A 
played by the guitars where it can more easily be seen as the seventh. The
only other remotely exciting thing to happen is the slight change in rhythm
between Ry. Fig 3a and 3b.


Key:
/    = slide up
    = slide down
b    = bend (whole step)
b^   = bend (1/2 step)
b^^  = bend (1 1/2 steps)
pb   = pre-bend
r    = release-bend
t    = tap with righthand finger
h    = hammer-on
p    = pull-off
~    = Vibrato
*    = Natural Harmonic
#(#) = Trill
**   = Artificial Harmonic
x    = Dead notes (no pitch)
P.M. = Palm mute (- -> underneath indicates which notes)
()  = Dive war
(/)  = Release war
Tp   = Tap wplectrum






Rhythm Fig. 1
                                               
Gb|--------------------------------------------------|
Db|--------------------------------------------------|
Ab|--7----------2----3-------------5--5--------------|
Eb|--------------------------------------------------|



Rhythm Fig. 2
                                            
Gb|--------------------------------------------------|
Db|--------------------------------------------------|
Ab|--7----------2----3----3----5----5----------------|
Eb|--------------------------------------------------|


                                               
Gb|--------------------------------------------------|
Db|--------------------------------------------------|
Ab|----------3---------------------------------------|
Eb|--5----5-------5--0--3--5-------------------------|


Rhythm Fig. 3a
                                            
Gb|--------------------------------------------------|
Db|--------------------------------------------------|
Ab|--------------------------------------------------|
Eb|--1--1--1--1--1--1--1--1--3--3--3--3--3--3--3--3/-|


                                                        
Gb|--------------------------------------------------|
Db|--------------------------------------------------|
Ab|--------------------------------------------------|
Eb|--11--11--11--11--11--11--11--11--13-------------|


Rhythm Fig. 3b
                                                
Gb|--------------------------------------------------|
Db|--------------------------------------------------|
Ab|--------------------------------------------------|
Eb|--1----1----1--1--1--3------3----3--3--3/---------|


                                                  
Gb|--------------------------------------------------|
Db|--------------------------------------------------|
Ab|--------------------------------------------------|
Eb|--11----11----11--11--11--13----------------------|


Rhythm Fig. 4a
                                              
Gb|--------------------------------------------------|
Db|--------------------------------------------------|
Ab|------------2--3--4--5--------------3--3----------|
Eb|--3----3------------------------------------------|


                                                
Gb|--------------------------------------------------|
Db|--------------------------------2--3--5-----------|
Ab|--1----1----1--1--1--3-------------------3--------|
Eb|--------------------------------------------------|



Rhythm Fig. 4b                                       

Gb|--------------------------------------------------|
Db|--------------------------------------------------|
Ab|------------2--3--4--5------------3--3------------|
Eb|--3----3------------------------------------------|


                                              
Gb|--------------------------------------------------|
Db|--------------------------------------------------|
Ab|--1----1----1--1--1--3----------------------------|
Eb|----------------------------------1--1------------|



Riff 1
                                         
Gb|--------------------------------------------------|
Db|--------------------------------------------------|
Ab|----5--5------------------------------------------|
Eb|--------------------------------------------------|



LADIES IN WAITING
Gene Simmons

[Rhy. Fig 1] (2x)

[Rhy. Fig 1] (3x)
So you been to the market
And the meat looks good tonight
And the ladies in waiting
[Rhy. Fig 2]
Will show you what it's all about
[Riff 1]

[Rhy. Fig 1] (3x)
Their selection is inviting
They sure look hot tonight
And the ladies in waiting
[Rhy. Fig 2]
Will show you what it's all about

[Rhy. Fig 3a]
And so you move on down the line
All the ladies are lookin' fine, so fine

[Rhy. Fig 4a]
Ladies in waiting, ladies in waiting, ladies in waiting
[Riff 1]

[Rhy. Fig 1] (3x)
[Rhy. Fig 2]

[Rhy. Fig 3b]
So you move on down the line
All the ladies are lookin' fine
[Riff 1]

[Rhy. Fig 1] (3x)
Their selection is inviting
They sure look hot tonight
And the ladies in waiting
[Rhy. Fig 2]
Will show you what it's all about

[Rhy. Fig 3b]
And so you move on down the line
All the ladies are lookin' fine, so fine

[Rhy. Fig 4b] (repeat and fade)
Ladies in waiting, ladies in waiting, ladies in waiting		   
AcordesyTabs.com © 2008 Acordes y Tablaturas para guitarra. Tabs and Chords for guitar. Aviso Legal - Contacto
El uso de este sitio está sujeto a la aceptación de los términos y condiciones (25 usuarios online)