tablaturas, partituras y acordes para guitarra
Busca por banda/artista:
 
y/o título de la canción:
A B C D E F G H I J K L M N O P Q R S T U V W X Y Z 0 1 2 3 4 5 6 7 8 9 / Top 100 tabs
Categorías
Usuarios
usuario:
Darse de alta
password:
Artistas más visitados
Publicidad
TOP acordes y tablaturas de Kiss
:: Beth - Kiss


Estás en: Inicio > Letra K > Acordes y tablaturas de Kiss > Larger than life
Larger than life
de Kiss
Puntúa este acorde/tab:      
(0.6/5)
Reportar este acorde/tab
  Añadir a tus favoritos
  Imprimir
Tuned down 1/2-step


Key:
/    = slide up
    = slide down
b    = bend (whole step)
b^   = bend (1/2 step)
b^^  = bend (1 1/2 steps)
pb   = pre-bend
r    = release-bend
t    = tap with righthand finger
h    = hammer-on
p    = pull-off
~    = Vibrato
*    = Natural Harmonic
#(#) = Trill
**   = Artificial Harmonic
x    = Dead notes (no pitch)
P.M. = Palm mute (- -> underneath indicates which notes)
()  = Dive war
(/)  = Release war
Tp   = Tap wplectrum





Rhythm Fig. 1
                                                            
Gb|-----------------------------------------------------|
Db|--------------------5-------------------3-----5------|
Ab|--0-0-0---0-----------5---0-0-0---0-------3-----5----|
Eb|--------3---3-------------------3---3----------------|



Rhythm Fig. 2
                                                          
Gb|----------------(12)---------------------------------|
Db|----------------------5-------------------3-----5----|
Ab|--0-0-0---0-------------5---0-0-0---0-------3-----5--|
Eb|--------3---3---------------------3---3--------------|



Rhythm Fig. 3
                                                         
Gb|--------------------------------------------12-9-----|
Db|--------------------5----------------------------10--|
Ab|--0-0-0---0-----------5---0-0-0---0------------------|
Eb|--------3---3-------------------3---3----------------|


Rhythm Fig. 4
                                                        
Gb|-----------------------------------------------------|
Db|-----------------------------------------------------|
Ab|--7-7-7-7------7-7-7-7-7-5---7-7-7-7-7-5---7---------|
Eb|----------0------------------------------------------|
    < - - - - - 3x - - - - - >


Rhythm Fig. 5
                                                         
Gb|-----------------------------------------------------|
Db|-----------------------------------------------------|
Ab|-----------2--5--5--5--3--0---0-5p0-0-0--0-5p0-------|
Eb|--3--3--3--------------------------------------0--2--|


                                                         
Gb|-----------------------------------------------------|
Db|-----------------------------------------------------|
Ab|--------------5--5--5--5--0---0-5p0-0-0--0-5p0-------|
Eb|--3--3--3--3-----------------------------------0--2--|


                                                 
Gb|-----------------------------------------------------|
Db|-------------------------------------2----3--5-------|
Ab|-----------2--5--5--5--0--3--------------------------|
Eb|--3--3--3--------------------------------------------|


                                          
Gb|-----------------------------------------------------|
Db|-----------------------------------------------------|
Ab|--2----3--5------------------------------------------|
Eb|-----------------------------------------------------|


Rhythm Fig. 6
                                                         
Gb|-----------------------------------------------------|
Db|-----------------------------------------------------|
Ab|-----------2--5--5--5--3--0---0-5p0-0-0--0-5p0-------|
Eb|--3--3--3--------------------------------------0--2--|
    < - - - - - - - - - - - 2x - - - - - - - - - - - >

                                                  
Gb|-----------------------------------------------------|
Db|-----------------------------------------------------|
Ab|-----------2--5--5--5--0--3------3--5------5---------|
Eb|--3--3--3--------------------------------------------|


Gb|-----------------------------------------------------|
Db|-----------------------------------------------------|
Ab|---------------------0-0-0-0-0-0-0-0-0-0-0-0-0-0-0-0-|
Eb|--1-----1--3------3----------------------------------|


                                              
Gb|-----------------------------------------------------|
Db|--7-7-5-5-7-5----------------------------------------|
Ab|--------------7--0-----------------------------------|
Eb|-----------------------------------------------------|



Riff 1
                                          
Gb|-----------------------------------------------------|
Db|--3-----5--------------------------------------------|
Ab|----3-----5------------------------------------------|
Eb|-----------------------------------------------------|



Riff 2
                      
Gb|-----------------------------------------------------|
Db|-----------------------------------------------------|
Ab|--12------------------------------------------------|
Eb|-----------------------------------------------------|



LARGER THAN LIFE
Gene Simmons

[Intro: guitar only]
[Riff 1]
[Rhy. Fig 1](2x)

[Rhy. Fig 3](3x)
If you want to make believe
There's nothing up my sleeve
I'm a man as man can be
As you can plainly see
Don't want to see no tears
Eliminate your fears
[Rhy. Fig 1]
When you think you've seen it all, baby

[Rhy. Fig 4]
You can't believe your eyes, what you heard weren't lies
My love is too much to hold, too much to hold

[Rhy. Fig 1](2x)
Much to much

[Rhy. Fig 3](5x)
I'm someone you can't fight
I'm plain in size
You can't believe your eyes
What you heard were not lies
I'm too much to hold
I can't be bought or sold
I'm far more than a man
I'm gonna make you understand
I'm larger than a life size man
[Rhy. Fig 1]

[Rhy. Fig 4]
And you can't believe your eyes, what you heard weren't lies
My love is too much to hold, too much to hold

[Rhy. Fig 5]
My love is larger than life, ooh larger than life
My love is larger than life, larger than life
My love is too much to hold, it can't be sold, oh no
[Riff 2]

[Rhy. Fig 1] (2x)
[Rhy. Fig 2]
[Rhy. Fig 1]

[Rhy. Fig 4]
You can't believe your eyes, what you heard weren't lies
My love is too much to hold, too much to hold

[Rhy. Fig 5]
My love is larger than life, larger than life
My love is larger than life, larger than life
My love is too much to hold, it can't be sold, oh no
[Riff 1]

[Rhy. Fig 1](2x)
I'm larger than a life size man

[Rhy. Fig 6]
My love is larger than life, larger than life
My love is larger than life, ooh larger than life
My love is too much to hold, it can't be sold, oh no		   
AcordesyTabs.com © 2008 Acordes y Tablaturas para guitarra. Tabs and Chords for guitar. Aviso Legal - Contacto
El uso de este sitio está sujeto a la aceptación de los términos y condiciones (32 usuarios online)