tablaturas, partituras y acordes para guitarra
Busca por banda/artista:
 
y/o título de la canción:
A B C D E F G H I J K L M N O P Q R S T U V W X Y Z 0 1 2 3 4 5 6 7 8 9 / Top 100 tabs
Categorías
Usuarios
usuario:
Darse de alta
password:
Artistas más visitados
Publicidad
TOP acordes y tablaturas de Kiss
:: Beth - Kiss


Estás en: Inicio > Letra K > Acordes y tablaturas de Kiss > Love her all i can
Love her all i can
de Kiss
Puntúa este acorde/tab:      
(0.8/5)
Reportar este acorde/tab
  Añadir a tus favoritos
  Imprimir
Tuned down 1/2-step


Key:
/    = slide up
    = slide down
b    = bend (whole step)
b^   = bend (1/2 step)
b^^  = bend (1 1/2 steps)
pb   = pre-bend
r    = release-bend
t    = tap with righthand finger
h    = hammer-on
p    = pull-off
~    = Vibrato
*    = Natural Harmonic
#(#) = Trill
**   = Artificial Harmonic
x    = Dead notes (no pitch)
P.M. = Palm mute (- -> underneath indicates which notes)
()  = Dive war
(/)  = Release war
Tp   = Tap wplectrum





Rhythm Fig. 1
                                              
Gb|----------------------------------------------|
Db|----------------------------------------------|
Ab|--5--------------------------5/---17---------|
Eb|----------------------------------------------|



Rhythm Fig. 2
                                                  
Gb|----------------------------------------------|
Db|-------------------------------3--------------|
Ab|--5-----------------3-------3-----5--3-----3--|
Eb|-----2----3----5---------5--------------5-----|


                                                 
Gb|-------------------------------------5--7-----|
Db|-------------------------------3--------------|
Ab|--5-----------------3-------3-----5-----------|
Eb|-----2----3----5---------5--------------------|


                                                  
Gb|----------------------------------------------|
Db|-------------------------------3--------------|
Ab|--5-----------------3-------3-----5--3-----3--|
Eb|-----2----3----5---------5--------------5-----|


                                                
Gb|----------------------------------------------|
Db|-------------------------------3--------------|
Ab|--5-----------------3-------3-----5-----(3)---|
Eb|-----2----3----5---------5--------------------|



Rhythm Fig. 3
                                          
Gb|----------------------------------------------|
Db|----------------------------------------------|
Ab|--5----5--------------3----3------------------|
Eb|----------------------------------------------|


                                           
Gb|----------------------------------------------|
Db|----------------------------------------------|
Ab|--6----6--------------1----1------3-----------|
Eb|----------------------------------------------|



Rhythm Fig. 4
                                           
Gb|----------------------------------------------|
Db|----------------------------------------------|
Ab|--5----5----5--5----5-------------------------|
Eb|----------------------------------------------|



Rhythm Fig. 5
                                              
Gb|--7----5--------------------------------------|
Db|------------7--5--3---------------------------|
Ab|---------------------5----------------5------|
Eb|----------------------------------------------|









LOVE HER ALL I CAN
Paul Stanley

[Guitar only]
[Rhy. Fig 1]
[Rhy. Fig 2]

[Rhy. Fig 3] (2x)
I remember the times I was lonely without her
Now she's mine and I spend my times dreamin' about her

[Rhy. Fig 2]
Love her all I can and try to understand
The things that make her glad
The things that make her sad
I'm a lucky guy, I hardly ever cry
And when the world looks bad
She's never ever sad

[Rhy. Fig 3] (2x)
She's so easy to please and it doesn't take money, no, no
We can have a good time when the skies aren't sunny

[Rhy. Fig 2]
Ah, I love her all I can and try to understand
The things that make her glad
The things that make her sad
I'm a lucky guy, I hardly ever cry
And when the world looks bad
She's never ever sad

[Rhy. Fig 3] (2x)
[Rhy. Fig 4]
[Rhy. Fig 2]

[Rhy. Fig 3] (2x)
I remember the times I was lonely without her
Now she's mine and I spend my time dreamin' about her

[Rhy. Fig 2]
I love her all I can and try to understand
The things that make her glad
The things that make her sad
I'm a lucky guy, I hardly ever cry
And when the world looks bad
She's never ever sad

[Rhy. Fig 3] (2x)
[Rhy. Fig 2]
[Rhy. Fig 5]		   
AcordesyTabs.com © 2008 Acordes y Tablaturas para guitarra. Tabs and Chords for guitar. Aviso Legal - Contacto
El uso de este sitio está sujeto a la aceptación de los términos y condiciones (23 usuarios online)