tablaturas, partituras y acordes para guitarra
Busca por banda/artista:
 
y/o título de la canción:
A B C D E F G H I J K L M N O P Q R S T U V W X Y Z 0 1 2 3 4 5 6 7 8 9 / Top 100 tabs
Categorías
Usuarios
usuario:
Darse de alta
password:
Artistas más visitados
Publicidad
TOP acordes y tablaturas de Kiss
:: Beth - Kiss


Estás en: Inicio > Letra K > Acordes y tablaturas de Kiss > Love theme from kiss
Love theme from kiss
de Kiss
Puntúa este acorde/tab:      
(0.7/5)
Reportar este acorde/tab
  Añadir a tus favoritos
  Imprimir
Tuned down 1/2-step

Comments: This is a full transcription. The divisions in the tabs are
bar-lines. Since there aren¥t any lyrics and there a few variations on
the main riff I decided to write the whole thing out. Pretty cool fills 
all around here.

Key:
/    = slide up
    = slide down
b    = bend (whole step)
b^   = bend (1/2 step)
b^^  = bend (1 1/2 steps)
pb   = pre-bend
r    = release-bend
t    = tap with righthand finger
h    = hammer-on
p    = pull-off
~    = Vibrato
*    = Natural Harmonic
#(#) = Trill
**   = Artificial Harmonic
x    = Dead notes (no pitch)
P.M. = Palm mute (- -> underneath indicates which notes)
()  = Dive war
(/)  = Release war
Tp   = Tap wplectrum



                                               
Gb|------------------------------|---------------7/9------------|
Db|------------------------------|--------------------9--7-5----|
Ab|------------------------------|---------------------------5--|
Eb|------------------------------|------------------------------|


                                                             
Gb|-----------------------------|-------------------------------|
Db|-----------------------------|-----------5-6-7--7-6-7-7------|
Ab|--7---5-7--7-5-7---------5-6-|--7---5-7-----------------7-5--|
Eb|------------------5-6-7------|-------------------------------|
   < - - - - - - - - - - - - - - 2x - - - - - - - - - - - - - - >


                                                        
Gb|-----7-8-9--------------------|------------------------------|
Db|--------------9-5-----------|------------------------------|
Ab|--7-----------------7p5-----5-|--7-------------------5---6---|
Eb|------------------------5h7---|-------5----7----8------------|


                                                             
Gb|-----------------------------|-------------------------------|
Db|-----------------------------|-----------5-6-7--7-6-7-7------|
Ab|--7---5-7--7-5-7---------5-6-|--7---5-7-----------------7-5--|
Eb|------------------5-6-7------|-------------------------------|


                                                            
Gb|--7---8---9----11-----12-----14---|--------------------------|
Db|----5---6----9-----10-----12------|--------------------------|
Ab|----------------------------------|--7----6----5-------------|
Eb|----------------------------------|-----------------7---5--3-|


                                                             
Gb|-----------------------------|-------------------------------|
Db|-----------------------------|-----------5-6-7--7-6-7-7------|
Ab|--7---5-7--7-5-7---------5-6-|--7---5-7-----------------7-5--|
Eb|------------------5-6-7------|-------------------------------|


                                                       
Gb|-----------------------------|-------------------------------|
Db|--7-5------------------------|-------------------------------|
Ab|-------5-7-------------------|--7-------------------5---6----|
Eb|------------7-5--0-3-0-3--5--|-------5----7----8-------------|


                                                             
Gb|-----------------------------|-------------------------------|
Db|-----------------------------|-----------5-6-7--7-6-7-7------|
Ab|--7---5-7--7-5-7---------5-6-|--7---5-7-----------------7-5--|
Eb|------------------5-6-7------|-------------------------------|


                                                              
Gb|------------------------------|------------------------------|
Db|------------------------------|-----------5-6-7--7-6-7-7-----|
Ab|--7---5-7--7-5-7------------5-|--7---5-7-----------------7-5-|
Eb|-----------------4--4-5-6-7---|------------------------------|


                                                  
Gb|----9-----7-----11-----9---7-4----|--------------------------|
Db|--7-----5-----9------7---------5--|--------------------------|
Ab|----------------------------------|--------------------------|
Eb|----------------------------------|--------------------------|


                                                           
Gb|------------------------------|------------------------------|
Db|------------------------------|------------------------------|
Ab|--7---5-7--7-5-7---------5-6--|--7---5-7-----------------5-6-|
Eb|------------------5-6-7-------|----------0--4---5---6--7-----|

Gb|-----------------------------|-------------------------------|
Db|-----------------------------|-----------5-6-7--7-6-7-7------|
Ab|--7---5-7--7-5-7---------5-6-|--7---5-7-----------------7-5--|
Eb|------------------5-6-7------|-------------------------------|


                                                                
Gb|---------------------|-----------------|---------------------|
Db|---------------------|-----------------|---------------------|
Ab|--3--------2---------|-----------------|--3--------2---------|
Eb|----------------3----|--0--------------|----------------3----|


                                                              
Gb|-------------------|---------------------|-------------------|
Db|-------------------|---------------------|-------------------|
Ab|-------------------|--3--------2---------|--0----------------|
Eb|--0----------------|----------------3----|-------------------|


                              
Gb|---------------------------|---------------------------------|
Db|---------------------------|--------5-6-7/14---14-12---------|
Ab|-7---5-7--7-5-7--------5-6-|-7--5-7----------12-----14-12-10-|
Eb|----------------5-6-7------|---------------------------------|


                                                              
Gb|------------------------------|------------------------------|
Db|------------------------------|-----------5-6-7--7-6-7-7-----|
Ab|--7---5-7--7-5-7------------5-|--7---5-7-----------------7-5-|
Eb|-----------------4--4-5-6-7---|------------------------------|


                                                        
Gb|-----7-8-9--------------------|------------------------------|
Db|--------------9-5-----------|------------------------------|
Ab|--7-----------------7p5-----5-|--7----6----5-----------------|
Eb|------------------------5h7---|-----------------7----5---3---|


                                                              
Gb|-----------------------------|-------------------------------|
Db|-----------------------------|-----------5-6-7--7-6-7-7------|
Ab|--7---5-7--7-5-7---------5-6-|--7---5-7-----------------7-5--|
Eb|------------------5-6-7------|-------------------------------|		   
AcordesyTabs.com © 2008 Acordes y Tablaturas para guitarra. Tabs and Chords for guitar. Aviso Legal - Contacto
El uso de este sitio está sujeto a la aceptación de los términos y condiciones (37 usuarios online)