tablaturas, partituras y acordes para guitarra
Busca por banda/artista:
 
y/o título de la canción:
A B C D E F G H I J K L M N O P Q R S T U V W X Y Z 0 1 2 3 4 5 6 7 8 9 / Top 100 tabs
Categorías
Usuarios
usuario:
Darse de alta
password:
Artistas más visitados
Publicidad
TOP acordes y tablaturas de Kiss
:: Beth - Kiss


Estás en: Inicio > Letra K > Acordes y tablaturas de Kiss > Love's a slap in the face
Love's a slap in the face
de Kiss
Puntúa este acorde/tab:      
(0.5/5)
Reportar este acorde/tab
  Añadir a tus favoritos
  Imprimir
Standard tuning

Comments: Gene probably has the record of having the most long song titles
on a single KISS album. But then again, he balanced that with two one-word
titles so... This bass part is serious. Gene felt the need to bring out
some old moves and add plenty of little high register fills. Kind of a 
text-book of playing over changes in rock, this is pentatonic for days.


Key:
/    = slide up
    = slide down
b    = bend (whole step)
b^   = bend (1/2 step)
b^^  = bend (1 1/2 steps)
pb   = pre-bend
r    = release-bend
t    = tap with righthand finger
h    = hammer-on
p    = pull-off
~    = Vibrato
*    = Natural Harmonic
#(#) = Trill
**   = Artificial Harmonic
x    = Dead notes (no pitch)
P.M. = Palm mute (- -> underneath indicates which notes)
()  = Dive war
(/)  = Release war
Tp   = Tap wplectrum



Rhythm Fig. 1
                                                         
G|-------------------------------------------------------|
D|-------------------------------------------------------|
A|--4--4--4--4--4--4--4--4--4--2-----4--4--4--4--2-------|
E|--------------------------------4----------------------|


                                                     
G|-------------------------------------------------------|
D|-------------------------------------------------------|
A|--2--2--2--2--2--2--2--2----4-----------------2--------|
E|-------------------------------0--0--2--2--4-----------|


                                                      
G|-------------------------------------------------------|
D|-------------------------------------------------------|
A|--4--4--2--4--4--4--4--4--4--2-----4--4--4--4--2-----		   
AcordesyTabs.com © 2008 Acordes y Tablaturas para guitarra. Tabs and Chords for guitar. Aviso Legal - Contacto
El uso de este sitio está sujeto a la aceptación de los términos y condiciones (26 usuarios online)