tablaturas, partituras y acordes para guitarra
Busca por banda/artista:
 
y/o título de la canción:
A B C D E F G H I J K L M N O P Q R S T U V W X Y Z 0 1 2 3 4 5 6 7 8 9 / Top 100 tabs
Categorías
Usuarios
usuario:
Darse de alta
password:
Artistas más visitados
Publicidad
TOP acordes y tablaturas de Kiss
:: Beth - Kiss


Estás en: Inicio > Letra K > Acordes y tablaturas de Kiss > Master & slave
Master & slave
de Kiss
Puntúa este acorde/tab:      
(0.1/5)
Reportar este acorde/tab
  Añadir a tus favoritos
  Imprimir
D Tuning

Key: 
p^ = pull-off


Fig. 1

F|----------------------------------------------------------------------------------|
C|----------------------2---0-----------------------------0---2---0-----------------|
G|----------------------------4-2---------------------------------------------------|
D|--0-0-7-6--0-5-3--0-3---3----------3-0-7-6--0-5-3---0-3---3---3-------------------|

Fig. 1A

F|----------------------------------------------------------------------------------|
C|----------------------2---0-------------------------------------------------------|
G|----------------------------4-2---------------------------------------------------|
D|--0-0-7-6--0-5-3--0-3---3----------3-0-7-6--0-5-3---------------------------------|

Fig. 1B

F|----------------------------------------------------------------------------------|
C|----------------------2---0-------------------------------------------------------|
G|----------------------------4-2---------------------------------------------------|
D|--0-0-7-6--0-5-3--0-3---3---------------------------------------------------------|

Fig. 2                                           |Fig. 2A            |Fig. 2B
                                                 |                   |              
F|-----------------------------------------------|-------------------|--------------|
C|----------------------2---0--------------------|-------0---2---0---|--------------|
G|----------------------------4-2----------------|-------------------|--------------|
D|--0-0-7-6--0-5-3--0-3---3----------3-0-7-6--0-5|3--0-3---3---3-----|--6-5-3-------|

Fig. 3

F|-------------------|
C|-------------------|
G|-------------------|
D|--0-0-0--1-2-3-5---|

Fig. 4

F|-------------------|
C|-------------------|
G|------5-5-4-5p^4---|
D|--0----------------|





Fig. 5

F|--------------------------|
C|--------------------------|
G|--5-5-5-5-4-2---5-4-2-----|
D|--------------------------|

Fig. 6

F|--------------------------|
C|--------------------------|
G|--------------------------|
D|---6-5-3--0-0-------------|


Master & Slave  by Stanley/Kulick/Cuomo

Intro
[Fig. 1 & 1A]

[Fig. 2& 2A then 2 & 2B] 2X
Like a movie in my head 
A page of lines we read
The words remain unsaid
Time a race you never win
Look back at where we've been
And throw the towel in

[Fig. 1 & 1A]
Every time I see a sign
Tell me what's the bottom line, Tell me 
I just wanna take my turn
Now before I crash and burn,  Yeah

[Fig. 2& 2A then 2 & 2B] 2X
Hope, a candel burning bright
A temporary light 
'Till we return tonight
Love, the mighty drug we crave
The master and the slave
Will rule us to our grave

[Fig. 1 then 1B 2X ]
Everytime I see a sign
Tell me what's the bottom line, Tell me 
I just wanna place to rest
Count to four and catch my breath 
One, Two, Three, Four...

[ No bass played ]
I don't know what to feel
Don't know what to say
Don't know what to do 

[Fig. 3 7X then Fig. 4]
I don't know where to go                      
Don't know who to be
Don't know who to know







[Fig. 3 15X & Fig. 5 then Fig. 1 then 1B 2X ]
(Solo)

[Fig. 1 &1B]
Life,  is never what it seems 
It shakes you from your dreams
Wake up and start to grow

[Fig. 2 & 2A then Fig. 2 & 2B ]
Everytime I see a sign
Tell me what's the bottom line, Tell me 
I just wanna place to rest
Stop and let me catch my breath

[Fig. 2 & 2A then Fig. 2 & 2B ]
Everytime I see a sign
Tell me what's the bottom line, Tell me 
I'll get all that I control
I just wanna loose control

[Fig. 2 & 2A then Fig. 2 & 2B ]
Everytime I see a sign
Tell me what's the bottom line, Tell me 
I just wanna take my turn
Now before I crash and burn

[Fig. 2 & 2A then Fig. 2 & 2B ]
[Fig. 2 & 2A then Fig. 2 & 6 ]		   
AcordesyTabs.com © 2008 Acordes y Tablaturas para guitarra. Tabs and Chords for guitar. Aviso Legal - Contacto
El uso de este sitio está sujeto a la aceptación de los términos y condiciones (24 usuarios online)