tablaturas, partituras y acordes para guitarra
Busca por banda/artista:
 
y/o título de la canción:
A B C D E F G H I J K L M N O P Q R S T U V W X Y Z 0 1 2 3 4 5 6 7 8 9 / Top 100 tabs
Categorías
Usuarios
usuario:
Darse de alta
password:
Artistas más visitados
Publicidad
TOP acordes y tablaturas de Kiss
:: Beth - Kiss


Rain
de Kiss
Puntúa este acorde/tab:      
(0.2/5)
Reportar este acorde/tab
  Añadir a tus favoritos
  Imprimir
Drop-D tuning down 1/2-step

Comments: The track starts with drums and Gene sliding down from the 12th fret on the 
D-string. Riff 1 alterantes between 4/4 time and 7/8 time. Occasionally there´s a slide on the last note of Riff 1 
up to about the 15th fret and back.


Key:
/    = slide up
    = slide down
b    = bend (whole step)
b^   = bend (1/2 step)
b^^  = bend (1 1/2 steps)
pb   = pre-bend
r    = release-bend
t^   = tap with righthand finger
h^   = hammer-on
p^   = pull-off
~    = Vibrato
*    = Natural Harmonic
#(#) = Trill
**   = Artificial Harmonic
x    = Dead notes (no pitch)
P.M. = Palm mute (- -> underneath indicates which notes)
()  = Dive war
(/)  = Release war
Tp   = Tap wplectrum



  
Riff 1
                                                                     
Gb||-----------------------------||
Db||-----------------------------||
Ab||-----------------------------||
Db||--0-3-5-4-3--0-3-5-4-3--3----||




Riff 2
                                                                          
--------4---4-------------|------3----3-2-3-2---------||
--------------------------|-------------------3-2-3-2-||
--2---2----------------1--|---------------------------||
--------------4--5--6-----|---------------------------||



Riff 3
                                                                                 
-----------------------|------------------------------|------------------------|
-----------------------|------------------------------|------------------------|
-----------------------|------------------------------|------------------------|
--0---0-3p0-0-3b-------|--0---0-3-0--0-5p0-6p0-7/10~--|--0---0-3p0-0-3b--------|


                                                                      
-------------------------------||
-------------------------------||
-------------------------3-----||
--0---0-3-0--0-12p0-11p0---5~--||




Riff 4
                                                                              
--------4---4-------2h4----|------4----4/6--2------|-----------------------|
--------------2--4---------|--------------------4----|-------2---------4--5--|
--2---2-----------------0--|-------------------------|-----------------------|
---------------------------|----------------------2--|----2-------2----------|


                                                                                
-------------------------|--------4---4-------2h4----|------4----4/6--2------|
----4--5--4--5--4--------|--------------2--4---------|--------------------4----|
-------------------5--4--|--2---2-----------------0--|-------------------------|
-------------------------|---------------------------|----------------------2--|


                                                                           
------------------------|------------------------|------------------------||
-------2----------------|------------------------|------------------------||
------------------0--1--|----0--1--0--1--0----1--|----0--1--0--1--0-------||
----2-------2--5--------|------------------------|-------------------3b---||


                                                                                    
Riff 5
                               
-------------------------|-----------------------------||
-------------------------|-----------------------------||
-------5-----------------|--------5--------------------||
--0---0---0--0-3p0-4p0-5-|--0---0---0--0-12p0-11p0-10--||



Riff 6

--------------------------|----------------------------||
--------------------------|----------------------------||
-------5------------------|--------5-------------------||   
-0---0---0--0-3--4--5-----|-0---0----0--0-12p0-11p0-10-||



Riff 7

-----------------------------||
-----------------------------||
-----------------------------||
--0-3-5-4-3--0-3-5-4-3-------||

Rain
Stanley, Kulick, Cuomo

[Intro: Riff 1]

[Riff 1]
Tell me what you want me to be 
I can't stand myself anymore 
Tell me what you want me to see 
I can't find my way off the floor 

[Riff 2]
Took me like a hurricane 
           
	        [Riff 3]
I think it's gonna rain, yeah 
I think it's gonna rain 
Rain down on me 
[Riff 1]

[Riff 1]
Tell me what you want me to hear 
Whisper words inside of my head 
Thunder like a gun in my ear 
Clouds are burstin' over my bed 

[Riff 2]
Wash me like a hurricane

	        [Riff 3] 
I think it's gonna rain, yeah 
I think it's gonna rain 
I think it's gonna rain down down down 
I think it's gonna rain 

[Riff4]
Open your eyes 
You can't deny 
It's just a fantasy, yeah 
Some things will end, some will begin 
Some things will never be 
Yeaaah 

[Riff 5] (2x)
[Riff 6] (2x)

Rain down on me 

[Riff 1]
Tell me what you want me to know 
Tell me what you're dyin' to say 
Throw your feelings up in the air 
Let the pieces fall where they may 

[Riff 4]
Open your eyes 
You can't deny 
It's just a fantasy, yeah 
Some things will end, some will begin 
Some things will never be 
Yeaaaaah 

[Riff 3]
I think it's gonna rain 
I think it's gonna rain 
I think it's gonna rain, yeah 
I think it's gonna rain 

[Riff 1]
Rain down on me 
Rain down on me 
Rain down on me

[Riff 7]		   
AcordesyTabs.com © 2008 Acordes y Tablaturas para guitarra. Tabs and Chords for guitar. Aviso Legal - Contacto
El uso de este sitio está sujeto a la aceptación de los términos y condiciones (28 usuarios online)