tablaturas, partituras y acordes para guitarra
Busca por banda/artista:
 
y/o título de la canción:
A B C D E F G H I J K L M N O P Q R S T U V W X Y Z 0 1 2 3 4 5 6 7 8 9 / Top 100 tabs
Categorías
Usuarios
usuario:
Darse de alta
password:
Artistas más visitados
Publicidad
TOP acordes y tablaturas de Kiss
:: Beth - Kiss


Within
de Kiss
Puntúa este acorde/tab:      
(0.2/5)
Reportar este acorde/tab
  Añadir a tus favoritos
  Imprimir
Tuning:
G
D
A
D

Key:
/   = Slide up
   = Slide down


Intro

G|------------------------------------------------------------------------------------|
D|------------------------------------------------------------------------------------|
A|--3--5-5-5-5------3--5-5-5-5------3--5-5-5-5------3--5-5-------------5-7------------|
D|-------------0-0-------------0-0-------------0-0----------0---4-5-4-----------------|
   <----------------------------------------2X-------------------------------------
Intro (cont)

G|-------------------------------------------|
D|-------------------------------------------|
A|-----------------------3-3-3-3---3-3--2-2--|
D|--0--0-0-0-0-0-0-0-------------------------|
   ------------------>
Fig. 1

G|-------------------------------------------------------------------------------------|
D|-------------------------------------------------------------------------------------|
A|--3--5-5-5-5------3--5-5-5-5------3--5-5-5-5------3--5-5-----------------------------|
D|-------------0-0-------------0-0-------------0-0---------0--4-5-4--------------------|

Fig. 2

G|-------------------------------------------------------------------------------------|
D|-------------------------------------------------------------------------------------|
A|--3------------3--5-5-5-5------3--5-5-5-5------3--5-5------------5-3----------------|
D|----0-0-0-0-0--------------0-0-------------0-0---------0--4-5-4----------------------|

Fig. 3

G|-------------------------------------------------------------------------------------|
D|-------------------------------------------------------------------------------------|
A|--3--5-5-5-5------3--5-5-5-5------3--5-5-5-5------3--5-5-----------5-3---------------|
D|-------------0-0-------------0-0-------------0-0---------0--4-5-4--------------------|

Fig. 3A               | Fig. 3B
                      |
G|--------------------|----------------------------------------------------------------|
D|--------------------|----------------------------------------------------------------|
A|--------------------|--------------3-----------3-3-3-3--2-2-2-2----2-2-2-2-0-0-0-----|
D|--0-0-0-0-0-0-0-0---|--0-0-0-0--0-----0-0-0-0----------------------------------------|

Fig. 4

G|-------------------------------------------------------------------------------------|
D|-------------------------------------------------------------------------------------|
A|--1----1--3-----3-1----------------------------------------------------------------|
D|------------------------8-7------7/8-8-----8/10---10/------------------------------|

Fig. 5

G|-------------------------------------------------------------------------------------|
D|-------------------------------------------------------------------------------------|
A|-----------------------------3-3-3-3-3-3------------------------------------1-1-1-1--|
D|--0---0-0-0-0-0-0-0-0----0-0---------------0--0-0-0-0-0-0-0-0---0-0-0-0-0-0----------|
       <-----3X--------->                      <-------2X------->
Fig. 5A          |Fig. 5B           |
                 |                  |
G|---------------|------------------|
D|---------------|------------------|
A|--3-3-3-3-3-3--|--3-3-3-3-------|
D|---------------|------------------|

Fig. 6

G|-------------------------------------------------------------------------------------|
D|-------------------------------------------------------------------------------------|
A|--5---------------3--5-5-5-5---------3--5-5-5-5------3-5-5--------------------------|
D|------0-0-0-0-0---------------0-0----------------0-0--------0--4-5-4-----------------|

Fig. 7

G|-------------------------------------------------------------------------------------|
D|-------------------------------------------------------------------------------------|
A|--3--5-5-5-5------3--5-5-5-5------3--5-5-5-5------3--5-5-----------------------------|
D|-------------0-0-------------0-0-------------0-0---------0--4-5-4--------------------|

Fig. 8

G|-------------------------------------------------------------------------------------|
D|-------------------------------------------------------------------------------------|
A|--5--------------3--5-5-5-5------3--5-5-5-5------3--5-5-----------5-3-3--0-0-0------|
D|-----0-0-0-0-0---------------0-0-------------0-0---------0--4-5-4--------------------|



"Within"  by Gene Simmons

[Intro]
Cry without tears
See without sight 
Night without day
And every day's black as the night

Fly without wings
Feel without touch
Touch without feel
And everywhere nothing is real

[Fig. 1 & Fig. 2]
I wanna see from within
I wanna be where I've been
I know a truth from a lie
I wanna live 'fore I die

[Fig. 3,3A]
Life without death
World without end
Sleep without dreams
And nothing is quite what it seems

[Fig. 3,3B]
I want something
More than you'll know
Follow myself
And go where you can never go
And I see though my eyes are closed

[Fig. 1 & 2]
I wanna see from within
I wanna be where I've been
I wanna truth not a lie
I wanna live 'fore I die

[Fig. 4]
Inside you without your blessing
Inside me is me confessing
Outside you is outside me
And inside there is no guarntee, no

[Fig. 5,5A]then
[Fig. 5,5B]
(Solo)

[Fig. 6 then Fig. 8]
I wanna see from within
I wanna be where I've been
I wanna truth not a lie
I wanna live 'fore I die

[Fig. 7 then Fig. 8] Play 2X then fade
I wanna see from within
I wanna be where I've been
I wanna truth not a lie
I wanna live 'fore I die		   
AcordesyTabs.com © 2008 Acordes y Tablaturas para guitarra. Tabs and Chords for guitar. Aviso Legal - Contacto
El uso de este sitio está sujeto a la aceptación de los términos y condiciones (34 usuarios online)