tablaturas, partituras y acordes para guitarra
Busca por banda/artista:
 
y/o título de la canción:
A B C D E F G H I J K L M N O P Q R S T U V W X Y Z 0 1 2 3 4 5 6 7 8 9 / Top 100 tabs
Categorías
Usuarios
usuario:
Darse de alta
password:
Artistas más visitados
Publicidad
TOP acordes y tablaturas de Kiss
:: Beth - Kiss


Estás en: Inicio > Letra K > Acordes y tablaturas de Kiss > We are one
We are one
de Kiss
Puntúa este acorde/tab:      
(0.7/5)
Reportar este acorde/tab
  Añadir a tus favoritos
  Imprimir
Afinação Eb

/  = slide up
  = slide down
h^ = hammer-on


Fig. 1

Gb|----------------------------------------------------------------------------------|
Db|-----------------------2---------------------4-----------------------------------|
Ab|--12---2--2/9--9--------7------------------------------------------------------|
Eb|-------------------0-----------2-2-2-2-2-2-2--------------------------------------|


Fig. 2                                                       | Fig. 2A
                                                             |
Gb|--4-4-4-4-4-4-4-4-----------------------------------------|-----------------------|
Db|------------------2h^4-4-4-4-4-4-4-4/----2-2-2-2-2-2-2-2--|--2h^4-4-4-4-4-4-4-4---|
Ab|----------------------------------------------------------|-----------------------|
Eb|--------------------------------------0-------------------|-----------------------|


Fig. 2B                   
                          
Gb|------------------------4-4-4-4-4-4-4-4--2h^4-4-4-4-4-4-4-------------------------|
Db|----------------------------------------------------------------------------------|
Ab|-----------------------------------------------------------9/---------------------|
Eb|--0h^2-2-2-2-2-2-2-2-------------------------------------------0-0-0-0-0-0-0-0----|


Fig. 2B  (cont)

Gb|----------------------------|
Db|----------------------------|
Ab|-------9-9-9-9-9-9-9-9------|
Eb|---2-----------------------|

Fig. 3


Gb|--2h^4-4-4-4-4-4-4-4--------------------------------------------------------------|
Db|-----------------------4-4-4-4-4-4-4-4---4-6-6-6-6-6-6-6--6/2-2-2-2-2-2-2-2h^4--|
Ab|----------------------------------------------------------------------------------|
Eb|----------------------------------------------------------------------------------|








Fig. 3 (cont)

Gb|--4-4-4-4-4-4-4-4h^6-------------------------------------------------------------|
Db|----------------------4-4-4-4-4-4-4-4h^6-6-6-6-6-6-6-6-6/2-2-2-2-2-2-2-2-------|
Ab|---------------------------------------------------------------------------------|
Eb|---------------------------------------------------------------------------------|

Fig. 3 (cont)

Gb|--4-4-4-4-4-4-4-4----------------------------------------------------------------|
Db|--------------------4-4-4-4-4-4-4-4/6--6-6-6-6-6-6-6-6--------------------------|
Ab|---------------------------------------------------------------------------------|
Eb|--------------------------------------------------------0-0-0-0-0-0-0-0----------|


Fig. 4

Gb|--2h^4-4-4-4-4-4-4-4---------------------------------------------------------------|
Db|----------------------2h^4-4-4-4-4-4-4-4---/------2------2-----4-4-4-4-4-4-4-2h^4-|
Ab|-----------------------------------------------------------------------------------|
Eb|-------------------------------------------------0----0-0---2-2--------------------|
   <--------------------------------------2X----------------------------------------->

Fig. 5

Gb|--2h^4-4-4-4-4-4-4-4-----2h^4-4-4-4-4-4-4-4---------------------4-4-4/-----------|
Db|---------------------------------------------4h^6-6-6-6-6-6-6-6------------------|
Ab|---------------------------------------------------------------------------------|
Eb|---------------------------------------------------------------------------------|

Fig. 5 (cont)                    | Fig. 6
                                 |
Gb|------------------------------|4-4-4-4-4-4----------------------------------------|
Db|--4-4-4-4-4-4--2h^4-4-4-4-4-4-|-----------------------------6-6-6-6-6-6/2-2-2h^4--|
Ab|------------------------------|-------------2/9-9-9-9-9-9-------------------------|
Eb|------------------------------|---------------------------------------------------|

Fig. 6 (cont)

Gb|--2h^4--4--------------------------------------------------------------------------|
Db|------------2h^4--4--4---6--6--6--2--2h^4---7h^9--9-8--8/6--6--6/4--4--4/2------|
Ab|-----------------------------------------------------------------------------------|
Eb|-----------------------------------------------------------------------------------|

Fig. 6 (cont)

Gb|------------------------------------------------|
Db|--1--1--1---------------------------------------|
Ab|------------4--4--4----------------------------|
Eb|----------------------2-2-2-2-2-2-2-2-2-2-2-2---|

Fig. 7

Gb|--2h^4-4-4-4-4-4-4-4-4-4-4-4-------------------------------------------------------|
Db|------------------------------2h^4-4-4-4-4-4-4-4-4-4-4-4---/-----2------2---------|
Ab|-----------------------------------------------------------------------------------|
Eb|----------------------------------------------------------------0----0-0-----------|






Fig. 7 (cont.)

Gb|---------------------------------2h^4-4-4-4-4-4-4-4-4-4-4-4--|
Db|-----2h^4-4-4-4-4-4-4-4-4-4-4-4------------------------------|
Ab|-------------------------------------------------------------|
Eb|--2----------------------------------------------------------|

Fig. 7 (cont)

Gb|------------------------------------------------------------------------------------|
Db|--2h^4-4-4-4-4-4-4-4-4-4-4-4---/---------------------------------------------------|
Ab|------------------------------------------------------------------------------------|
Eb|-------------------------------------0-0-0-0-0-0-0-0-0-0-0--2-2-2-2-2-2-2-2-2-2-2-2-|

Fig. 8

Gb|--2h^4-4-4-4-4-4-4-4-4-4-4-4--2h^4-4-4-4-4-4-4-4-4-4-4-4--/-----------------------|
Db|-------------------------------------------------------------------2------2---------|
Ab|------------------------------------------------------------------------------------|
Eb|-----------------------------------------------------------------0----0-0-----------|

Fig. 8 (cont)

Gb|-----------------------------------------2h^4-4-4-4-4-4-4-4-4-4-4-4----------------|
Db|--------2h^4-4-4-4-4-4-4-4-4--2h^4-4-4----------------------------------------------|
Ab|------------------------------------------------------------------------------------|
Eb|--0h^2------------------------------------------------------------------------------|

Fig. 9 

Gb|--2h^4-4-4-4-4-4-4-4-4-4-4-4--2h^4-4-4-4-4-4-4-4-4-4-4-4--2h^4-4-4-4-4-4-4-4-4-4-4-4-|
Db|-------------------------------------------------------------------------------------|
Ab|-------------------------------------------------------------------------------------|
Eb|-------------------------------------------------------------------------------------|

Fig. 10

Gb|--------/------------------------|
Db|----------------------------------|
Ab|--2--2----------------------------|
Eb|--------------2--2---0------------|		   
AcordesyTabs.com © 2008 Acordes y Tablaturas para guitarra. Tabs and Chords for guitar. Aviso Legal - Contacto
El uso de este sitio está sujeto a la aceptación de los términos y condiciones (22 usuarios online)