tablaturas, partituras y acordes para guitarra
Busca por banda/artista:
 
y/o título de la canción:
A B C D E F G H I J K L M N O P Q R S T U V W X Y Z 0 1 2 3 4 5 6 7 8 9 / Top 100 tabs
Categorías
Usuarios
usuario:
Darse de alta
password:
Artistas más visitados
Publicidad
TOP acordes y tablaturas de Kiss
:: Beth - Kiss


Estás en: Inicio > Letra K > Acordes y tablaturas de Kiss > Tunnel of love
Tunnel of love
de Kiss
Puntúa este acorde/tab:      
(0.5/5)
Reportar este acorde/tab
  Añadir a tus favoritos
  Imprimir
Standard tuning

Comments: This bassline combines regular finger playing and slapping. I've
notated the thumb slaps with a T and the finger pops with a P under the tab.
All the bends on the G on the 3rd fret, 6th string are just shy of a half-step.


Key:
/    = slide up
    = slide down
b    = bend (whole step)
b^   = bend (1/2 step)
b^^  = bend (1 1/2 steps)
pb   = pre-bend
r    = release-bend
t    = tap with righthand finger
h    = hammer-on
p    = pull-off
~    = Vibrato
*    = Natural Harmonic
#(#) = Trill
**   = Artificial Harmonic
x    = Dead notes (no pitch)
P.M. = Palm mute (- -> underneath indicates which notes)
()  = Dive war
(/)  = Release war
Tp   = Tap wplectrum


Rhythm Fig. 1a
                                            
G|----------------------------------------------------|
D|----------------------------------------------------|
A|----------------------------------------------------|
E|--0--0------0---------------------------------------|
              T


Rhythm Fig. 1b
                                            
G|-----9---------------------------------------------|
D|----------------------------------------------------|
A|----------------------------------------------------|
E|--0---------0---------------------------------------|
       P      T


Rhythm Fig. 2
                                            
G|----------------------------------------------------|
D|----------------------------------------------------|
A|-------------------------5--------------------------|
E|--0--0------0-----------------5------3b^------------|
              T


Rhythm Fig. 3
                                          
G|----------------------------------------------------|
D|----------------------------------------------------|
A|----------------------------------------------------|
E|--0--0------0------------------3b^------------------|
              T



Rhythm Fig. 4
                                          
G|--/9--9---------------/9--9-----------------------|
D|----------------------------------------------------|
A|----------------------------------------------------|
E|---------0---------------------0--------------3b^---|
        P  T




Rhythm Fig. 5
                                             
G|----------------------------------------------------|
D|----------------------------------------------------|
A|------------------------5--5------------------------|
E|--0--0------0--0------------------4b^---------------|




Rhythm Fig. 6

G|----------------------------------------------------|
D|----------------------------------------------------|
A|------------------------5--5------------------------|
E|--0--0------0--0------------------4b^--3------------|
                                    T    T



Rhythm Fig. 7

G|---------------------------7-----6-----4------------|
D|----------------------------------------------------|
A|------------------------5-----4-----2---------------|
E|--0--0------0--0--------------------------3---------|
                          T  P  T  P  T  P  T



Rhythm Fig. 8
                                                  
G|---------------------------7-----6-----4------------|
D|----------------------------------------------------|
A|------------------------5-----4-----2--------0------|
E|--0--0------0--0--------------------------3---------|
                          T  P  T  P  T  P  T




Rhythm Fig. 9
                                              
G|----------------------------------------------------|
D|----------------------------------------------------|
A|------------------------5----4----2-----------------|
E|--0--0------0--0-----------------------3------------|



Rhythm Fig. 10
                                              
G|----------------------------------------------------|
D|----------------------------------------------------|
A|----------------------------------------------------|
E|--0--0------0--0--------2----3----5-(5)-7----------|
                          T    T    T     T


Rhythm Fig. 11
                                                     
G|----------------------------------------------------|
D|----------------------------------------------------|
A|--2--2--2--2--2--2--2--2---2--2--2--2--2--5----7----|
E|----------------------------------------------------|


                                                 
G|----------------------------------------------------|
D|----------------------------------------------------|
A|-----------------------------2----3--3--------------|
E|--0--0--0--0--0--0--0--0----------------------------|



Rhythm Fig. 12
                                                     
G|----------------------------------------------------|
D|----------------------------------------------------|
A|---------------------------------------------7-----|
E|--0--0--0--0--0--0--0--0---0--0--0--0--0--7---------|
    < - - - - 3x - - - - > 


G|----------------------------------------------------|
D|----------------------------------------------------|
A|--------------------------------------------7------|
E|--0--0--0----0--0--0--0---0--0--0--0--0--7----------|



G|----------------------------------------------------|
D|----------------------------------------------------|
A|----------------------------------------------------|
E|--0--0--0--0--0--0--0--0--0--/10----5------3b^------|









TUNNEL OF LOVE
Gene Simmons

[Rhy. Fig 1a] (4x)
[Rhy. Fig 4]
[Rhy. Fig 1a]

[Rhy. Fig 5]
Well if you're lookin' for the best
[Rhy. Fig 6]
Then baby be my guest
[Rhy. Fig 5] 
I'm right before your eyes 
[Rhy. Fig 7]
And I'm tellin' you no lies 

[Rhy. Fig 5]
You wanted my disease
[Rhy. Fig 6]
You'll have to do as I please 
[Rhy. Fig 7] (2x)
You'll jump off the roof if I say 
I won't let you get away 

[Rhy. Fig 11]
It must have been the devil in me, I don't know what else it could be 

[Rhy. Fig 1b] 
Tunnel of love, tunnel of love
[Rhy. Fig 1a]
Let me visit your tunnel of love
[Rhy. Fig 1b] 
Tunnel of love, tunnel of love 
[Rhy. Fig 3]
I've got to visit your tunnel of love 

[Rhy. Fig 5]
You're just a victimless crime
[Rhy. Fig 6]
It happens all the time, yeah 
[Rhy. Fig 5]
You'll have an overstay
[Rhy. Fig 7]
And your bill is my pay 

[Rhy. Fig 11]
You are the lock, I am the key, you know what you do to me 

[Rhy. Fig 1b]
Tunnel of love, tunnel of love
[Rhy. Fig 1a]
Let me visit your tunnel of love 
[Rhy. Fig 1b]
Tunnel of love, tunnel of love
[Rhy. Fig 3]
I've got to visit your tunnel of love 

[Rhy. Fig 9]
[Rhy. Fig 7]
[Rhy. Fig 9]
[Rhy. Fig 7]
[Rhy. Fig 10] (3x)
[Rhy. Fig 8]

[Rhy. Fig 11]
You are the lock, I am the key, you know what you do to me 

[Rhy. Fig 7] (3x)
Tunnel of love, tunnel of love, let me visit your tunnel of love 
Tunnel of love, tunnel of love
[Rhy. Fig 3]
I've got to visit your tunnel of love 

[Rhy. Fig 7] (3x)
Tunnel of love, tunnel of love, let me visit your tunnel of love 
Tunnel of love, tunnel of love
[Rhy. Fig 2]
I've got to visit your tunnel of love

[Rhy. Fig 12]
Tunnel of love, tunnel of love, let me visit your tunnel of love 
Tunnel of love, tunnel of love, I've got to visit your tunnel of love

(fade out)		   
AcordesyTabs.com © 2008 Acordes y Tablaturas para guitarra. Tabs and Chords for guitar. Aviso Legal - Contacto
El uso de este sitio está sujeto a la aceptación de los términos y condiciones (39 usuarios online)