tablaturas, partituras y acordes para guitarra
Busca por banda/artista:
 
y/o título de la canción:
A B C D E F G H I J K L M N O P Q R S T U V W X Y Z 0 1 2 3 4 5 6 7 8 9 / Top 100 tabs
Categorías
Usuarios
usuario:
Darse de alta
password:
Artistas más visitados
Publicidad
TOP acordes y tablaturas de Kiss
:: Beth - Kiss


Estás en: Inicio > Letra K > Acordes y tablaturas de Kiss > True confessions
True confessions
de Kiss
Puntúa este acorde/tab:      
(0.8/5)
Reportar este acorde/tab
  Añadir a tus favoritos
  Imprimir
Standard tuning

Comments: Look out for this one. Most notes during the verses are played
very staccato. The slides into double-stops that occur here and there takes
some work to get to sound fluid. This bass player (Neil Jason, probably a 
studio musician) has some serious skills.


Key:
/    = slide up
    = slide down
b    = bend (whole step)
b^   = bend (1/2 step)
b^^  = bend (1 1/2 steps)
pb   = pre-bend
r    = release-bend
t    = tap with righthand finger
h    = hammer-on
p    = pull-off
~    = Vibrato
*    = Natural Harmonic
#(#) = Trill
**   = Artificial Harmonic
x    = Dead notes (no pitch)
P.M. = Palm mute (- -> underneath indicates which notes)
()  = Dive war
(/)  = Release war
Tp   = Tap wplectrum



Rhythm Fig. 1
                                                     
G|-----------2---------------------2------------------|
D|-------2h4-------------------2h4--------------------|
A|--0---------------------0---------------------------|
E|------------------0--2------------------0--2--------|


                                                   
G|-----------2----------------------------------------|
D|-------2h4-------------------------------12--------|
A|--0-------------------------------------------------|
E|------------------5/---10----10----10---------------|



Rhythm Fig. 2
                                                  
G|-----------2---------------------2------------------|
D|-------2h4-------------------2h4--------------------|
A|--0---------------------0---------------------------|
E|------------------0--2------------------0--2--------|


                                                   
G|-----------2----------------------------------------|
D|-------2h4------------------------------------------|
A|--0--------------------------------------5--6-------|
E|------------------5/---10----10----10---------------|


Rhythm Fig. 3
                                                      
G|----------------------------------------------------|
D|----------------------------------------------------|
A|----------------------------------------------------|
E|--5--5--5--5--5--5--0--2--5--5--5--5--5--5--0--2----|


                                                  
G|----------------------------------------------------|
D|----------------------------------------------------|
A|----------------------------------------10---------|
E|--5--5--5--5--5--5--5/---8----8----8----------------|


                                                       
G|----------------------------------------------------|
D|----------------------------------------------------|
A|----------------------------------/12----12---------|
E|--5--5--5--5--5--5--0--2--5--5--5------------0--2---|


                                                     
G|----------------------------------------------------|
D|----------------------------------------------------|
A|----------/12----12--------3----3----3--3--5--6-----|
E|--5--5--5------------0--3---------------------------|



Rhythm Fig. 4
                                                      
G|----------------------------------------------------|
D|----------------------------------------------------|
A|----------------------------------------------------|
E|--5--5--5--5--5--5--0--2--5--5--5--5--5--5--0--2----|


                                                  
G|----------------------------------------14---------|
D|----------------------------------------14---------|
A|----------------------------------------------------|
E|--5--5--5--5--5--5--5/---8----8----8----------------|


                                                      
G|----------------------------------------------------|
D|----------------------------------------------------|
A|----------------------------------------------------|
E|--3--5--5--5--5--5--0--2--5--5--5--5--5--5--0--2----|


                                                
G|----------------------------------------------------|
D|----------------------------------------------------|
A|--------------------------------------3--4----------|
E|--5--5----5----5--5/---8----8----8------------------|



Rhythm Fig. 5
                                                     
G|------------------------------------/18---/18-------|
D|------------------------------------/19---/19-------|
A|--7--7--7--7--7--7--7--7----------------------------|
E|--------------------------0--0--0-------------------|


                                                     
G|------------------------------------/14----14------|
D|------------------------------------/14-------------|
A|----------------------------------------------------|
E|--5--5--5--5--5--5--5--5--5--5--5-------------------|


                                                      
G|----------------------------------------------------|
D|----------------------------------------------------|
A|--7--7--7--7--7--7--7--7--7--7--7--7--7--7--7--7----|
E|----------------------------------------------------|



Rhythm Fig. 6
                                                      
G|----------------------------------------------------|
D|----------------------------------------------------|
A|--7--7--7--7--7--7--7--7----------------------------|
E|--------------------------0--0--0--0--0--0--0--0----|


                                                     
G|------------------------------------/14----14------|
D|------------------------------------/14-------------|
A|----------------------------------------------------|
E|--5--5--5--5--5--5--5--5--5--5--5-------------------|


                                                      
G|----------------------------------------------------|
D|----------------------------------------------------|
A|--7--7--7--7--7--7--7--7--7--7--7--7--7--7--2--4----|
E|----------------------------------------------------|




Rhythm Fig. 7
                                                    
G|------------------------------------2---------------|
D|----------------------------------------------------|
A|--5--5--4----2--------0----0--3--4-----3--2--0------|
E|----------------0--2--------------------------------|
  < - - - - - - - - - - - - 2x - - - - - - - - - - >

                                                    
G|----------------------------------------------------|
D|----------------------2----2--0---------------------|
A|--5--5--4----2--2--0-------------4--2---------------|
E|---------------------------------------3--2--0------|




Rhythm Fig. 8
                                                    
G|------------------------------------2---------------|
D|----------------------------------------------------|
A|--5--5--4----2--------0----0--3--4-----3--2--0------|
E|----------------0--2--------------------------------|
  < - - - - - - - - - - - 2x - - - - - - - - - - - >

                                                    
G|----------------------------------------------------|
D|----------------------2----2--0---------------------|
A|--5--5--4----2--2--0-------------4--2---------------|
E|---------------------------------------3--2--0------|


                                         
G|----------------------------------------------------|
D|----------------------------------------------------|
A|-----------7----6-----------------------------------|
E|------0---------------------------------------------|




Rhythm Fig. 9
                                                    
G|-----------------------------------/14----14-------|
D|-----------------------------------/14----14-------|
A|--5--5--4----2--------0----0--0--0------------------|
E|----------------0--2--------------------------------|
  < - - - - - - - - - - - 2x - - - - - - - - - - - >

                                                    
G|----------------------------------------------------|
D|----------------------2----2--0---------------------|
A|--5--5--4----2--2--0-------------4--2---------------|
E|---------------------------------------3--2--0------|







Rhythm Fig. 10
                                                    
G|------------------------------------12b---12b-------|
D|----------------------------------------------------|
A|--5--5--4----2--------0----0--0--0------------------|
E|----------------0--2--------------------------------|
  < - - - - - - - - - - - 2x - - - - - - - - - - - >

                                                    
G|----------------------------------------------------|
D|----------------------2----2--0---------------------|
A|--5--5--4----2--2--0-------------4--2---------------|
E|---------------------------------------3--2--0------|


                      
G|----------------------------------------------------|
D|----------------------------------------------------|
A|----------7----6------------------------------------|
E|----------------------------------------------------|




TRUE CONFESSIONS
Gene Simmons

[Rhy. Fig 1]

[Rhy. Fig 3]
Before you tell me to go, I've got to let you know 
How you're makin' my temperature rise 
I let you use me, you tried to abuse me, you tell me you're not very nice 

[Rhy. Fig 5]
I'm not your social security, I'm not your star opportunity, yeah 
Oh baby, you can have me absolutely, won't you give me 

[Rhy. Fig 7]
True confessions, true confessions, true confessions 
That's all I'm askin' for, yeah 

[Rhy. Fig 1]

[Rhy. Fig 4]
I do things to make you crazy inside 
And baby that's one thing you know you can't hide 
You ask me why, what's your confession 
Well baby, the truth is, you're in my possession tonight 

[Rhy. Fig 7]
True confessions, true confessions, true confessions 
That's all I'm askin' for, yeah 

[Rhy. Fig 2]

[Rhy. Fig 6]
I'm not your social security, I'm not your star opportunity, yeah 
Oh baby, you can have me absolutely, won't you give me 

[Rhy. Fig 7]
True confessions, true confessions, true confessions 

[Choir interlude]

[Rhy. Fig 8]
True confessions, true confessions, true confessions
[Rhy. Fig 9]
True confessions, true confessions, true confessions

[Rhy. Fig 10]
True confessions, true confessions, true confessions
(Repeat and fade)		   
AcordesyTabs.com © 2008 Acordes y Tablaturas para guitarra. Tabs and Chords for guitar. Aviso Legal - Contacto
El uso de este sitio está sujeto a la aceptación de los términos y condiciones (28 usuarios online)