tablaturas, partituras y acordes para guitarra
Busca por banda/artista:
 
y/o título de la canción:
A B C D E F G H I J K L M N O P Q R S T U V W X Y Z 0 1 2 3 4 5 6 7 8 9 / Top 100 tabs
Categorías
Usuarios
usuario:
Darse de alta
password:
Artistas más visitados
Publicidad
TOP acordes y tablaturas de Kiss
:: Beth - Kiss


Estás en: Inicio > Letra K > Acordes y tablaturas de Kiss > Thou shalt not
Thou shalt not
de Kiss
Puntúa este acorde/tab:      
(0.7/5)
Reportar este acorde/tab
  Añadir a tus favoritos
  Imprimir
Eb Tuning

Key:
/   = slide up
   = slide down
h^  = hammer-on


Intro

Gb|------------------------13-----------------------------------------------------------|
Db|---------------------------14
-----------------------------------------------------|
Ab|-------------------------------------------------------------------------------------|
Eb|--0-3-5--5-3-0--/12----------------0-3-5--5-3---0-0-0-0-0-0-0-0----0-0-0-0-0-0-------|
                                                  <-------2X------->
Intro (cont)

Gb|-------------------------12-12-12-12-------------------------------------------------|
Db|-------------------/9---------------------------------------------------------------|
Ab|---------------5---------------------------------------------------------------------|
Eb|---0-0-3--3-3------------------------------------------------------------------------|

Fig. 1

Gb|-------------------------------------------------------------------------------------|
Db|-------------------------------------------------------------------------------------|
Ab|-------------------------------------------------------------------------------------|
Eb|--0-0-0-0--5-5-5--0-0-0-0--6--3---0-0-0-0--5-5-5-5--0-0-0-0---5-6-7----------------|
    <-----------------------------------2X-------------------------------->
Fig. 2
                                                    | Fig. 2A          | Fig. 2B
Gb|-------------------------------------------------|------------------|----------------|
Db|-------------------------------------------------|12---------------|---/12---------|
Ab|-------------------5-5-5-5-5---------------------|------------------|----------------|
Eb|--7-7-7-7--7-7--5------------5---7-7-7-7-7--3-5--|------0-3-5--5-3--|----------------|

Fig. 3

Gb|-------------------------------------------------------------------------------------|
Db|-------------------------------------------------------------------------------------|
Ab|-------------------------------------------------------------------------------------|
Eb|--0-0-0-0-0-0-0-0----0-0-0-0-0-0---0-3-5--0-3-5--5-3---0-0-0-0-0-0-0-0---------------|
    <------2X-------->                                   <---------2X----->
Fig. 3 (cont)

Gb|-------------------------12-12-12-12----|
Db|------------------/12------------------|
Ab|-------------5--------------------------|
Eb|--0-2-3--3-3----------------------------|

Fig. 4

Gb|-------------------------------------------------------------------------------------|
Db|-------------------------------------------------------------------------------------|
Ab|----------------------------------------------------------------------------------5-5|
Eb|--0-3-5--0-3-5--5-3---0-0-0-0-0-0-0-0-0-0-0-0-0-0-0-0---0-0-0-0-0-0---0-2-3-3-2-0----|
    <-----------------------2X---------------------------------------->
Fig. 5       
                                     | Fig. 5A             | Fig. 5B
Gb|----------------------------------|---------------------|----------------------------|
Db|----------------------------------|---------------------|----------------------------|
Ab|----------------------------------|---------------------|----------------------------|
Eb|--0-0-0-0-0-0-0-0-----0-0-0-0-0-0-|-0-3-5---0-3-5--5-3--|--0-3-5---5-3-0-------------|
    <------2X-------->
Fig. 6

Gb|-----------------------------------------------------12------------------------------|
Db|----------------------------------------------12h^14----12-11-12---------------------|
Ab|--------------5---------5-5-5------0-0-0-0-------------------------0-0-12-----------|
Eb|--0-2-3--3-3-----3-3-3---------------------------------------------------------------|

Fig. 6 (cont)

Gb|---------------------------|
Db|---------------------------|
Ab|--------5/---------5-5-5---|
Eb|--3-3-3------3-3-3---------|

Fig. 7

Gb|-------------------------------------------------------------------------------------|
Db|-------------------------------------------------------------------------------------|
Ab|--0-0-0-0-0-0-0-0---2-2-2-2-2-2-2-2----2-2-2-2---2-2/--2-2-2--2-2-2------------------|
Eb|-------------------------------------------------------------------------------------|
                                     ^Stop
Fig. 7 (cont)

Gb|---12h^14--12h^14--12h^14--12--|
Db|--------------------------------|
Ab|--------------------------------|
Eb|--------------------------------|

Fig. 8 (Solo)

Gb|-------------------------------------------------------------------------------------|
Db|-------------------------------------------------------------------------------------|
Ab|-------------------------------------------------------------------------------------|
Eb|---0-0-0-0-0-0-0-0----0-0-0-0-0-0-5-6---0-0-0-0-0-0-0-0---3-3-2--0-5-5---------------|
    <-----3X---------->                   <----3X---------->
Fig. 8 (cont)

Eb|-------------------------------------------------------------------------------------|
Db|-------------------------------------------------------------------------------------|
Ab|-------------------------------------------------------------------------------------|
Eb|--0-0-0-0-0-0-0-0---0-0-0-0-0-5-6-7---0-0-0-0-0-0-0-0---0-0-0-0-0-6-5-3--------------|
    <-----3X--------->                  
Fig. 8 (cont)

Gb|-------------------------------------------------------------------------------------|
Db|-------------------------------------------------------------------------------------|
Ab|---------------------------------------------------------------2-2-2-2---------------|
Eb|---0-0-0-0-0-0-0-0---0-0-0-0-0-4-5-6--7-7-7-7-7-7-7-7-7------------------------------|
                                                         ^Stop
Fig. 8 (cont)

Gb|--12h^14--12h^14--12h^14--12h^14--12--|
Db|---------------------------------------|
Ab|---------------------------------------|
Eb|---------------------------------------|

Fig. 9

Gb|-------------------------------------------------------------------------------------|
Db|-------------------------------------------------------------------------------------|
Ab|-------------------------------------------------------------------------------------|
Eb|--0-0-0-0-0-0-0-0---0-0-0-0-0--0-3-5--0-3-5--5-3---0-0-0-0-0-0-0-0---0-0-0-0-0-------|
    <-----2X-------->                                <-------2X------->
Fig. 9A                  |Fig. 9B             |Fig. 9C
                         |           Eb|----------------------|--------------------|----------------------|------------------|
Db|----------------------|--------------------|----------------------|------------------|
Ab|----------------------|--------------5-5---|--------------5-5-----|------------------|
Eb|--0-2-3-3-2-0--5-5---|--0-2-3-3-2-0-------|--0-2-3-3-2-0-----5--|------------------|

Fig. 10

Gb|-------------------------|
Db|-------------------------|
Ab|-------------------------|
Eb|--0-3-5---0-3-5--5-3--0--|


Thou Shalt Not by (Simmons - Damon)

[Intro]
Lookout!

[Fig.1, Fig.2 then Fig.2A]
I Lived most of my life in New York City
I was born and raised in the promised land
One day this man in black said, "Listen Jack"
Told me I was chosen to kiss the ring on his hand
He said "Kindly reconsider the sins of your past"
And I said "Mister you can kindly kiss my ass"

[Fig. 3]
Thou shalt not
But, I know what I want
Thou shalt not, Thou shalt not 
But I know what I need
Thou shalt not

[Fig. 1, Fig. 2 then Fig. 2B]
Well the son of a bitch must be crazy 
Tellin' me I'm gonna go down
I said "This ain't the inquisition, you ain't the son of god
And I sure as hell don't give a damn!
He said "You're long gone  can't you tell
And I said "Mister if I'm goin' I'll see you in hell!
Yeah!

[Fig. 4, Fig. 5 then Fig. 5A, Fig. 5 then Fig. 5B]
Thou shalt not
But, I know what I want
Thou shalt not, Thou shalt not 
But I know what I need
Thou shalt not, Thou shalt not
Gotta live my life
Thou shalt not, Thou shalt not
Any way I please, Thou shalt not

[Fig. 6, Fig. 7]
Don't even try
You know I'd die to be free
And you wonder why
You can't bring this guy to his knees
'Cause I know what I want 
Yes I know what I need
Well I know what I want, I know what I need
Gotta live my life just the way I please

[Fig. 8 (Solo)]
Oh, Yeah
Yes, I know what I want
Yeaaahhhhh!

[Fig. 9, 9A then Fig. 9,9B then Fig. 9,9C]
Thou shalt not, Thou shalt not
Thou shalt not, Thou shalt not
Thou shalt not
But, I know what I want
Thou shalt not, Thou shalt not 
Oh, yes I do, Thou shalt not
I'm gonna live my life
Thou shalt not, Thou shalt not
Any way I choose,Thou shalt not

[Fig.10]
You got that right		   
AcordesyTabs.com © 2008 Acordes y Tablaturas para guitarra. Tabs and Chords for guitar. Aviso Legal - Contacto
El uso de este sitio está sujeto a la aceptación de los términos y condiciones (25 usuarios online)