tablaturas, partituras y acordes para guitarra
Busca por banda/artista:
 
y/o título de la canción:
A B C D E F G H I J K L M N O P Q R S T U V W X Y Z 0 1 2 3 4 5 6 7 8 9 / Top 100 tabs
Categorías
Usuarios
usuario:
Darse de alta
password:
Artistas más visitados
Publicidad
TOP acordes y tablaturas de Kiss
:: Beth - Kiss


Estás en: Inicio > Letra K > Acordes y tablaturas de Kiss > Goin' blind
Goin' blind
de Kiss
Puntúa este acorde/tab:      
(0.5/5)
Reportar este acorde/tab
  Añadir a tus favoritos
  Imprimir
O Violão deve ser afinado meio tom abaixo!


Intro: D G Bm A  d|-------4-| F#m
                 a|-2-4-5---|

A música começa igual a intro

Refrão (normal):
Bm                        F#m
'Cause, I think I'm goin' blind 

  e -7------------------------|
  B ---10-7---7-10-7----------|
  G --------9--------(9)-9~11-|
  D --------------------------|
  A --------------------------|
  E --------------------------|
Bm                     F#m
And I know how it's to be, yeah

  e -10-9----------10-------10-|
  B ------12-10-12----12-10-10-|
  G ------------------------11-|
  D ---------------------------|
  A ---------------------------|
  E ---------------------------|

Repete Intro

Refrão (Pra começar o solo):
Bm                        F#m
'Cause, I think I'm goin' blind 

  e -7------------------------|
  B ---10-7---7-10-7----------|
  G --------9--------(9)-9~11-|
  D --------------------------|
  A --------------------------|
  E --------------------------|
Bm                     F#m
And I know how it's to be, yeah

  e --------------------------|
  B -15-14----------15--------|
  G -------16-14-16----16-14--|
  D --------------------------|
  A --------------------------|
  E --------------------------|

Solo:

  e -------------------17^17^17^17-14-------14--14--14----------
  B -17^17^17-15-17-15----------------17^17---17^-17^-17^-------
  G ------------------------------------------------------------
  D ------------------------------------------------------------
  A ------------------------------------------------------------
  E ------------------------------------------------------------

  e --------------------------------17--17--17--17-------------
  B -------14--14--------14--14---17^-17^-17^-17^--17-15-17-15--
  G -14-16-16^-16^-14-16-16^-16^--------------------------------
  D ------------------------------------------------------------
  A ------------------------------------------------------------
  E ------------------------------------------------------------

  e -17^17^17^17-15------14--14--14---------------------------------|
  B -----------------17^---17^-17^-17^--------14--14--------14--14--|
  G ------------------------------------14-16-16^-16^-14-16-16^-16^-|
  D ----------------------------------------------------------------|
  A ----------------------------------------------------------------|
  E ----------------------------------------------------------------|

Refrão (normal)...

D G Bm Bm/A G D/F# A  d|-------4-| F#m
                      a|-2-4-5---|
 
Refrão (normal)... 

D G Bm Bm/A G D/F# A  d|-------4-| F#m
                      a|-2-4-5---|


Letra:

And I know how it should be 
There is nothing more for you and I 
Some are young and some are free 
But I think I'm goin' blind 
'Cause, I think I'm goin' blind 
And I know how it's to be, yeah 
Little lady, can't you see 
You're so young and so much different than I 
I'm 93, you're sixteen 
Can't you see I'm goin' blind 
'Cause, I think I'm goin' blind 
And I know how it's to be, yeah 
'Cause, I think I'm goin' blind 
And I know how it's to be, yeah 
You're much younger, can't you see 
There is nothing more for you and I 
I'm 93, you're sixteen 
And I think I'm goin' blind 
Yes, I think I'm goin' blind 
And I know how it's to be, yeah 		   
AcordesyTabs.com © 2008 Acordes y Tablaturas para guitarra. Tabs and Chords for guitar. Aviso Legal - Contacto
El uso de este sitio está sujeto a la aceptación de los términos y condiciones (24 usuarios online)