tablaturas, partituras y acordes para guitarra
Busca por banda/artista:
 
y/o título de la canción:
A B C D E F G H I J K L M N O P Q R S T U V W X Y Z 0 1 2 3 4 5 6 7 8 9 / Top 100 tabs
Categorías
Usuarios
usuario:
Darse de alta
password:
Artistas más visitados
Publicidad
TOP acordes y tablaturas de Metallica


Estás en: Inicio > Letra M > Acordes y tablaturas de Metallica > Battery Intro
Battery Intro
de Metallica
Puntúa este acorde/tab:      
(0.4/5)
Reportar este acorde/tab
  Añadir a tus favoritos
  Imprimir
This is the intro for Battery.James uses steel stringed guitars and spanish guit



Acoustic Riff 1
e-|-----------------------------------|---------------------------------------
B-|-----------------------------------|---------------------------------------
G-|-----------------------------------|---------------------------------------
D-|--3--2-----------2-----------------|--2-----------0--0---------------------
A-|--2--------------0-----------------|--0--------------2---------------------
E-|--0--------------1-----------------|--2--------------3---------------------

Acoustic Riff 2
e-|-----------------------------------|---------------------------------------
B-|-----------------------------------|---------------------------------------
G-|--4--5--------4-----------4--5-----|--4--5--------------------5--4---------
D-|--------7--------------------------|--------7-----5------------------------
A-|-----------------------------------|---------------------------------------
E-|-----------------------------------|---------------------------------------

Acoustic Riff 2b
e-|-----------------------------------|---------------------------------------
B-|-----------------------------------|---------------------------------------
G-|--4--5--------4-h5-p4-----4--5-----|--4--5--------------------5--4---------
D-|--------7--------------------------|--------7-----5------------------------
A-|-----------------------------------|---------------------------------------
E-|-----------------------------------|---------------------------------------
		   
AcordesyTabs.com © 2008 Acordes y Tablaturas para guitarra. Tabs and Chords for guitar. Aviso Legal - Contacto
El uso de este sitio está sujeto a la aceptación de los términos y condiciones (30 usuarios online)