tablaturas, partituras y acordes para guitarra
Busca por banda/artista:
 
y/o título de la canción:
A B C D E F G H I J K L M N O P Q R S T U V W X Y Z 0 1 2 3 4 5 6 7 8 9 / Top 100 tabs
Categorías
Usuarios
usuario:
Darse de alta
password:
Artistas más visitados
Publicidad
TOP acordes y tablaturas de Lynyrd skynyrd


Estás en: Inicio > Letra L > Acordes y tablaturas de Lynyrd skynyrd > Made in the shade
Made in the shade
de Lynyrd skynyrd
Puntúa este acorde/tab:      
(0.3/5)
Reportar este acorde/tab
  Añadir a tus favoritos
  Imprimir
This song is played in standard tuning

Alright this song isn't really played with a bass, it is played with
some kind of piano instument, but it isn't a piano, but you can play
it with a bass, because it's the same notes.

This song is very hard to tab so just deal with me here

Don't come in till about 1:07 into the song. You can hear when to come
in, it's very easy just listen for it.

G --------------- X3
D --5----------3-
A -----5--3--5---
E =--------------

G --------------------------------------------
D --5-----5-3-2-------------------------2-3-4-
A -----5--------5-3-----3-------3-----3-------
E -------------------3-----3-5-----3----------

G -------------------------------------------
D --5----------3-5----------3----------------
A -----5--3--5------5--3--5---5-----5----2-3-
E -------------------------------5-----5-----

Wait till the lead to do this, listen for when it starts, it's not that
hard

G -------------------------------------------
D --5-----5-----5-----5-----5-----5-----5----
A -----5-----5-----5-----5-----5-----5-----5-
E -------------------------------------------

G ------------------------------------
D --5-3-2-----------------------2-3-4-
A --------5-3-----3-----3-----3-------
E -------------3-----3-----3----------

G ---------------------------------------------------------
D --5----------3-5----------3----------------------2-3-4-5-
A -----5--3--5------5--3--5---5-----5----2-3-----3---------
E -------------------------------5-----5------3------------

Wait for a few seconds and then start again, once again listen for when
to start

G --------------- X3
D --5----------3-
A -----5--3--5---
E =--------------

G --------------------------------------------
D --5-----5-3-2-------------------------2-3-4-
A -----5--------5-3-----3-------3-----3-------
E -------------------3-----3-5-----3----------

G ------------------------------------------------------- X2
D --5----------3-5----------3----------------------2-3-4-
A -----5--3--5------5--3--5---5-----5----2-3-----3-------
E -------------------------------5-----5------3----------

G ---------------
D --5----------3-
A -----5--3--5---
E =--------------

G -------------------
D --5----------------
A -----5-------3-2---
E -----------------5-

G -------------------------------------------
D --5-----5-----5-----5-----5-----5-----5----
A -----5-----5-----5-----5-----5-----5-----5-
E -------------------------------------------

G ------------------------------------
D --5-3-2-----------------------2-3-4-
A --------5-3-----3-----3-----3-------
E -------------3-----3-----3----------

G -------------------------------------------------------
D --5----------3-5----------3----------------------2-3-4-
A -----5--3--5------5--3--5---5-----5----2-3-----3-------
E -------------------------------5-----5------3----------

G --------------- X2
D --5----------3-
A -----5--3--5---
E =--------------

G ------- X10 or intill song ends
D --5----
A -----5-
E -------		   
AcordesyTabs.com © 2008 Acordes y Tablaturas para guitarra. Tabs and Chords for guitar. Aviso Legal - Contacto
El uso de este sitio está sujeto a la aceptación de los términos y condiciones (67 usuarios online)