tablaturas, partituras y acordes para guitarra
Busca por banda/artista:
 
y/o título de la canción:
A B C D E F G H I J K L M N O P Q R S T U V W X Y Z 0 1 2 3 4 5 6 7 8 9 / Top 100 tabs
Categorías
Usuarios
usuario:
Darse de alta
password:
Artistas más visitados
Publicidad
TOP acordes y tablaturas de Metallica


Estás en: Inicio > Letra M > Acordes y tablaturas de Metallica > Waste my hate
Waste my hate
de Metallica
Puntúa este acorde/tab:      
(0.4/5)
Reportar este acorde/tab
  Añadir a tus favoritos
  Imprimir
 Intro - Clean, really cheesy vocals . . .
|--------------------------------------------------------------------------|
|--------------------------------------------------------------------------|
|--------------------------------------------------------------------------|
|-------------------------------------5---5--------------------------------|
|---------------5---7---7---7p5-------5---5---------5---5---5--------------|
|-0---0---5h7---------------------7-----------5h7-------5---5---3---5---7--|

|---------------------------------------------------------------------|
|---------------------------------------------------------------------|
|---------------------------------------------------------------------|
|-------------------7---7-------------5---5---------------------------|
|---------------5---7---7---7p5-------5---5---------5---5---5---------|
|-0---0---5h7---------------------7-----------5h7-------5---5---3---5-|


 Pre-verse riff
|----------------|-----------------|-----------------|-------------|
|----------------|-----------------|-----------------|-------------|
|----------------|-----------------|-----------------|-------------|
|x-x-9-x-9-8-x-7-|-----------------|---------------5-|-7-7---5-7-7-|
|x-x-7-x-7-x-5-|-x-x-9-x-9-8-x-7-|-x-x-7-x-7-6---5/|-7-7---5-7-7-|
|----------------|-x-x-7-x-7-x-5-|-x-x-5-x-5-0-3/|-5-5-0-3/5-5-|


 Verse Riff
|------------------------------------------|
|------------------------------------------|
|-9---9---9---9-9---10---10---10---10-10---|
|-9---9---9---9-9---9----9----9----9--9----|
|-7---7---7---7-7---7----7----7----7--7----|
|------------------------------------------|


 -----------------------------------|
 -----------------------------------|
 ----7---7-7---10---10---10---9-9-9-|
 ----7---7-7---7----7----7----7-7-7-|
 ----5---5-5---5----5----5----5-5-5-|
 -----------------------------------|


 This is the heavy riff used as a kind of bridge bit . . .
|---------------------------------------------------------------|
|---------------------------------------------------------------|
|--------------------------------------------------10---10---10-|
|----7---9-------7---9-------7---9-----7---9-------10---10---10-|
|----5---7-------5---7-------5---7-----5---7-------8----8----8--|
|0-----------0-----------0---------0-----------0----------------|		   
AcordesyTabs.com © 2008 Acordes y Tablaturas para guitarra. Tabs and Chords for guitar. Aviso Legal - Contacto
El uso de este sitio está sujeto a la aceptación de los términos y condiciones (31 usuarios online)