tablaturas, partituras y acordes para guitarra
Busca por banda/artista:
 
y/o título de la canción:
A B C D E F G H I J K L M N O P Q R S T U V W X Y Z 0 1 2 3 4 5 6 7 8 9 / Top 100 tabs
Categorías
Usuarios
usuario:
Darse de alta
password:
Artistas más visitados
Publicidad
TOP acordes y tablaturas de Metallica


So what!
de Metallica
Puntúa este acorde/tab:      
(0.1/5)
Reportar este acorde/tab
  Añadir a tus favoritos
  Imprimir
               Gtr1
||------------||-----------|-----------|---------|-----------|
||------------||-----------|-----------|---------|-----------|
||------------||-----------|-----------|---------|-----------|
||------------||-5-7-7-7-|-5-7-7-7-|-5-7-5-7-|-5-7-7-7-|
||------------||-5-7-7-7-|-5-7-7-7-|-5-7-5-7-|-5-7-7-7-|
||------------||-3-5-5-5-|-3-5-5-5-|-3-5-3-5-|-3-5-5-5-|

 Gtr1&2
|-----------|-----------|---------|-----------|
|-----------|-----------|---------|-----------|
|-----------|-----------|---------|-----------|
|-5-7-7-7-|-5-7-7-7-|-5-7-5-7-|-5-7-7-7-|
|-5-7-7-7-|-5-7-7-7-|-5-7-5-7-|-5-7-7-7-|
|-3-5-5-5-|-3-5-5-5-|-3-5-3-5-|-3-5-5-5-|


|----------|----------|----------|----------|           
|----------|----------|----------|----------|            
|-5˙7777|-77777777-|-77777777-|-77777777-|            |
|-5˙7777|-77777777-|-77777777-|-77777777-|            |
|-3m5555|-55555555-|-55555555-|-55555555-|            |
|----------|----------|----------|----------|            |
                                                         |
                                                         |
|-----------|-----------|---------|-----------|          |
|-----------|-----------|---------|-----------|          |
|-----------|-----------|---------|-----------|          |
|-5-7-7-7-|-5-7-7-7-|-5-7-5-7-|-5-7-7-7-|          |
|-5-7-7-7-|-5-7-7-7-|-5-7-5-7-|-5-7-7-7-|          |
|-3-5-5-5-|-3-5-5-5-|-3-5-3-5-|-3-5-5-5-|          |
                                                         |
                                                         |
|----------|----------|----------|----------|            |
|----------|----------|----------|----------|            |
|-5˙7777|-77777777-|-77777777-|-77777777-|            |
|-5˙7777|-77777777-|-77777777-|-77777777-|            |
|-3m5555|-55555555-|-55555555-|-55555555-|            |
|----------|----------|----------|----------|                3 times
                                                          
                                                           >  1&2&3 Verse
|-----------|-----------|---------|-----------|           /
|-----------|-----------|---------|-----------|          /
|-----------|-----------|---------|-----------|          |
|-5-7-7-7-|-5-7-7-7-|-5-7-5-7-|-5-7-7-7-|          |
|-5-7-7-7-|-5-7-7-7-|-5-7-5-7-|-5-7-7-7-|          |
|-3-5-5-5-|-3-5-5-5-|-3-5-3-5-|-3-5-5-5-|          |
                                                         |
 Gtr1                                                    |
|----------|----------|-----------|-----------|          |
|----------|----------|-----------|-----------|          |
|----------|-----2----|-----------|-----------|          |
|-----2----|---2---2--|-5-7-7-7-|-5-7-7-7-|          |
|---2---2--|-1--------|-5-7-7-7-|-5-7-7-7-|          |
|-1--------|----------|-3-5-5-5-|-3-5-5-5-|          |
|          |          |           |           |          |
|Gtr2      |          |           |           |          |
|----------|-6--------|-----------|-----------|          |
|-----6----|---6------|-----------|-----------|          |
|---5---5--|-----3----|-----------|-----------|          |
|-3--------|-------3--|-----------|-----------|          |
|----------|----------|-----------|-----------|          |
|----------|----------|-----------|-----------|          |
                                                         |
                                                         |
 Gtr1                                                    |
|----------|----------|-----------|-----------|          |
|----------|----------|-----------|-----------|          |
|----------|-----2----|-----------|-----------|          |
|-----2----|---2---2--|-5-7-7-7-|-5-7-7-7-|          |
|---2---2--|-1--------|-5-7-7-7-|-5-7-7-7-|          |
|-1--------|----------|-3-5-5-5-|-3-5-5-5-|          |
|          |          |           |           |          |
|Gtr2      |          |           |           |          |
|----------|-6--------|-----------|-----------|          |
|-----6----|---6------|-----------|-----------|          |
|---5---5--|-----3----|-----------|-----------|          |
|-3--------|-------3--|-----------|-----------|          |
|----------|----------|-----------|-----------|          |
|----------|----------|-----------|-----------|          |
                                                         |
|---------|-----------|                                  |
|---------|-----------|                                  |
|---------|-----------|                                  |
|-5-7-5-7-|-5-7-7-7-|                                  |
|-5-7-5-7-|-5-7-7-7-|                                  /
|-3-5-3-5-|-3-5-5-5-|                                 /

 Gtr1
|----------|----------|----------|----------|           
|----------|----------|----------|----------|            
|-5˙7777|-77777777-|-77777777-|-77777777-|            |
|-5˙7777|-77777777-|-77777777-|-77777777-|            |
|-3m5555|-55555555-|-55555555-|-55555555-|            |
|----------|----------|----------|----------|            |
                                                         |
                                                         |
|-----------|-----------|---------|-----------|          |
|-----------|-----------|---------|-----------|          |
|-----------|-----------|---------|-----------|          |
|-5-7-7-7-|-5-7-7-7-|-5-7-5-7-|-5-7-7-7-|          |
|-5-7-7-7-|-5-7-7-7-|-5-7-5-7-|-5-7-7-7-|          |
|-3-5-5-5-|-3-5-5-5-|-3-5-3-5-|-3-5-5-5-|          |
                                                         |
                                                         |
|----------|----------|----------|----------|            |
|----------|----------|----------|----------|            |
|-5˙7777|-77777777-|-77777777-|-77777777-|            |
|-5˙7777|-77777777-|-77777777-|-77777777-|            |    JAMES H.
|-3m5555|-55555555-|-55555555-|-55555555-|                 playes.
|----------|----------|----------|----------|                rhytm gtr.
                                                           >     &&&
                                                          /   MR.HAMMETT
|-----------|-----------|---------|-----------|          /       the
|-----------|-----------|---------|-----------|          |      solo
|-----------|-----------|---------|-----------|          |
|-5-7-7-7-|-5-7-7-7-|-5-7-5-7-|-5-7-7-7-|          |
|-5-7-7-7-|-5-7-7-7-|-5-7-5-7-|-5-7-7-7-|          |
|-3-5-5-5-|-3-5-5-5-|-3-5-3-5-|-3-5-5-5-|          |
                                                         |
                                                         |
|----------|----------|-----------|-----------|          |
|----------|----------|-----------|-----------|          |
|----------|-----2----|-----------|-----------|          |
|-----2----|---2---2--|-5-7-7-7-|-5-7-7-7-|          |
|---2---2--|-1--------|-5-7-7-7-|-5-7-7-7-|          |
|-1--------|----------|-3-5-5-5-|-3-5-5-5-|          |
                                                         |
                                                         |
|----------|----------|-----------|-----------|          |
|----------|----------|-----------|-----------|          |
|----------|-----2----|-----------|-----------|          |
|-----2----|---2---2--|-5-7-7-7-|-5-7-7-7-|          |
|---2---2--|-1--------|-5-7-7-7-|-5-7-7-7-|          |
|-1--------|----------|-3-5-5-5-|-3-5-5-5-|          |
                                                         |
|---------|-----------|                                  |
|---------|-----------|                                  |
|---------|-----------|                                  |
|-5-7-5-7-|-5-7-7-7-|                                  |
|-5-7-5-7-|-5-7-7-7-|                                  /
|-3-5-3-5-|-3-5-5-5-|                                 /


 Gtr1&2                                                 
|----------|----------|----------|----------|            
|----------|----------|----------|----------|            |
|-5˙7777|-77777777-|-77777777-|-77777777-|            |
|-5˙7777|-77777777-|-77777777-|-77777777-|            |
|-3m5555|-55555555-|-55555555-|-55555555-|            |
|----------|----------|----------|----------|            |
                                                         |
                                                         |
|-----------|-----------|---------|-----------|          |
|-----------|-----------|---------|-----------|          |
|-----------|-----------|---------|-----------|          |
|-5-7-7-7-|-5-7-7-7-|-5-7-5-7-|-5-7-7-7-|          |
|-5-7-7-7-|-5-7-7-7-|-5-7-5-7-|-5-7-7-7-|          |
|-3-5-5-5-|-3-5-5-5-|-3-5-3-5-|-3-5-5-5-|          |
                                                         |
                                                         |
|----------|----------|----------|----------|            |
|----------|----------|----------|----------|            |
|-5˙7777|-77777777-|-77777777-|-77777777-|            |
|-5˙7777|-77777777-|-77777777-|-77777777-|            |
|-3m5555|-55555555-|-55555555-|-55555555-|            |
|----------|----------|----------|----------|            
                                                          
                                                           >   4 Verse
|-----------|-----------|---------|-----------|           /
|-----------|-----------|---------|-----------|          /
|-----------|-----------|---------|-----------|          |
|-5-7-7-7-|-5-7-7-7-|-5-7-5-7-|-5-7-7-7-|          |
|-5-7-7-7-|-5-7-7-7-|-5-7-5-7-|-5-7-7-7-|          |
|-3-5-5-5-|-3-5-5-5-|-3-5-3-5-|-3-5-5-5-|          |
                                                         |
 Gtr1                                                    |
|----------|----------|-----------|-----------|          |
|----------|----------|-----------|-----------|          |
|----------|-----2----|-----------|-----------|          |
|-----2----|---2---2--|-5-7-7-7-|-5-7-7-7-|          |
|---2---2--|-1--------|-5-7-7-7-|-5-7-7-7-|          |
|-1--------|----------|-3-5-5-5-|-3-5-5-5-|          |
|          |          |           |           |          |
|Gtr2      |          |           |           |          |
|----------|-6--------|-----------|-----------|          |
|-----6----|---6------|-----------|-----------|          |
|---5---5--|-----3----|-----------|-----------|          |
|-3--------|-------3--|-----------|-----------|          |
|----------|----------|-----------|-----------|          |
|----------|----------|-----------|-----------|          |
                                                         |
                                                         |
 Gtr1                                                    |
|----------|----------|-----------|-----------|          |
|----------|----------|-----------|-----------|          |
|----------|-----2----|-----------|-----------|          |
|-----2----|---2---2--|-5-7-7-7-|-5-7-7-7-|          |
|---2---2--|-1--------|-5-7-7-7-|-5-7-7-7-|          |
|-1--------|----------|-3-5-5-5-|-3-5-5-5-|          |
|          |          |           |           |          |
|Gtr2      |          |           |           |          |
|----------|-6--------|-----------|-----------|          |
|-----6----|---6------|-----------|-----------|          |
|---5---5--|-----3----|-----------|-----------|          |
|-3--------|-------3--|-----------|-----------|          |
|----------|----------|-----------|-----------|          /
|----------|----------|-----------|-----------|         /


|---------|---------|-----------------|----||
|---------|---------|-----------------|----||
|---------|---------|-----------------|----||
|-5-7-5-7-|-5-7-5-7-|-----------------|-7-||
|-5-7-5-7-|-5-7-5-7-|-----------------|-7-||
|-3-5-3-5-|-3-5-3-5-|-----------------|-5-||.		   
AcordesyTabs.com © 2008 Acordes y Tablaturas para guitarra. Tabs and Chords for guitar. Aviso Legal - Contacto
El uso de este sitio está sujeto a la aceptación de los términos y condiciones (85 usuarios online)