tablaturas, partituras y acordes para guitarra
Busca por banda/artista:
 
y/o título de la canción:
A B C D E F G H I J K L M N O P Q R S T U V W X Y Z 0 1 2 3 4 5 6 7 8 9 / Top 100 tabs
Categorías
Usuarios
usuario:
Darse de alta
password:
Artistas más visitados
Publicidad
TOP acordes y tablaturas de Metallica


Estás en: Inicio > Letra M > Acordes y tablaturas de Metallica > Some kind of monster
Some kind of monster
de Metallica
Puntúa este acorde/tab:      
(0.2/5)
Reportar este acorde/tab
  Añadir a tus favoritos
  Imprimir
Tuning: Drop B  

Low-  (B  F#  B  E  G#  C#)  -High

Intro - Both gtrs
c#  ------------------------|-----|
G# -------------------------|-----|
E  -------------------------|-----|
B  -------------------------|-----|
F# -------------------------|-----|
B  0-0-3-5-0--0-3-5-0-3-5-0-|-3-5-|

Main Riff - Both Gtrs
F# 0-00-3-5-0-0-0-3-5-0-3-5-0--3-5-|
B  0-00-3-5-0-0-0-3-5-0-3-5-0--3-5-|
              .       .     .
This version of the riff is used a lot in the song too - Both gtrs
F# 000000-3-5-0--0-3333-5-0-3333-5-0-333-5-|
B  000000-3-5-0--0-3333-5-0-3333-5-0-333-5-|


Riff One - Gtr I
c# ---------|-0-|
G# ---------|-0-|
E  ---------|-0-|
B  ---------|-0-|
F# 333--5-0-|-0-|
B  333--5-0-|---|

Riff One - Gtr II
B  0-3-5-0-|-7b-|
F# --------|----|
B  --------|----|


Verse Riff - Gtr I
F# ---5---55-5-|
B  00---0------|

Verse Riff - Gtr II
F# ----------|
B  5bgr-4bgr-|


Interlude One - Gtr I
F# --------|
B  00-33-1-|
   .. .. .

Interlude One - Gtr II
B  -------7b-|
F# ----------|
B  0-0--0----|
   .



Pre-Chorus- Both Gtrs
F# 1--1--1-1--1-|-3-4-|
B  1--1--1-1--1-|-3-4-|


Chorus - Both Gtrs
F# ----------------|----------------------------------|
B  3-5-0-0-3-3-5-0-|-3-5-0-3-5-0-2-5-0-3-5-00-5-3-5-0-|



Interlude Two - Gtr I
B  ------3-4-----|---|-----|
F# --------------|-1-|-----|
B  0--0------000-|-1-|-111-|
             ...     ...

Interlude Two (PII) - Gtrs I and II
F# 0-44-0-44-|-----|-------|
B  0-44-0-44-|-000-|-5s6-4-|



Chord Part - Gtrs I and II
E  7-6-5-4-7-6-5-4-|-7s4-|
B  7-6-5-4-7-6-5-4-|-7s4-|
F# 5-4-3-2-5-4-3-2-|-5s2-|
B  ----------------|-----|



Outro - Gtr I
E  15-15-15-13-13-13-13H15-13H15-13-|
B  ---------------------------------|
F# ---------------------------------|
B  ---------------------------------|		   
AcordesyTabs.com © 2008 Acordes y Tablaturas para guitarra. Tabs and Chords for guitar. Aviso Legal - Contacto
El uso de este sitio está sujeto a la aceptación de los términos y condiciones (30 usuarios online)