tablaturas, partituras y acordes para guitarra
Busca por banda/artista:
 
y/o título de la canción:
A B C D E F G H I J K L M N O P Q R S T U V W X Y Z 0 1 2 3 4 5 6 7 8 9 / Top 100 tabs
Categorías
Usuarios
usuario:
Darse de alta
password:
Artistas más visitados
Publicidad
TOP acordes y tablaturas de Ramones


Spiderman
de Ramones
Puntúa este acorde/tab:      
(0.2/5)
Reportar este acorde/tab
  Añadir a tus favoritos
  Imprimir
D

D 
Spiderman Spiderman does whatever a spider can
G 
Spins a web, any size
D 
Catches theives just like flies
A G D
Look out here comes the Spiderman

Is he strong? Listen bud he's got radioactive blood

Can he swing from a thread?

Take a look overhead

Hey there there goes the Spiderman


F C
In the chill of the night
G D
At the scene of the crime
F C
Like a streak of light
G A 
He arrives just in time

Spiderman Spiderman friendly neighborhood Spiderman

Wealth and fame, he's ignored

Action is his reward

Look out here comes the Spiderman


[ D G D A G D ] x2


In the chill...

Spiderman Spiderman friendly neighborhood Spiderman

Wealth and fame, he's ignored

Action is his reward

To him , life is a great big bang-up


G D
Wherever there's hang-up

You'll find the Spiderman


D 
G | -------------------
D | ----4-7-7-7-5-4---- [ bass riffs ] 
A | --5-------------5--
E | -------------------


G 
G | ----4-7-7-7-5-4----
D | --5-------------5--
A | -------------------
E | -------------------


A
G | ----6-9-9-9-7-6----
D | --7-------------7--
A | -------------------
E | -------------------



G 
G | ----4-7-7-7-5-4---------------
D | --5-------------5--5~777-5-4--
A | -----------------------------5
E | ------------------------------

D 		   
AcordesyTabs.com © 2008 Acordes y Tablaturas para guitarra. Tabs and Chords for guitar. Aviso Legal - Contacto
El uso de este sitio está sujeto a la aceptación de los términos y condiciones (37 usuarios online)