tablaturas, partituras y acordes para guitarra
Busca por banda/artista:
 
y/o título de la canción:
A B C D E F G H I J K L M N O P Q R S T U V W X Y Z 0 1 2 3 4 5 6 7 8 9 / Top 100 tabs
Categorías
Usuarios
usuario:
Darse de alta
password:
Artistas más visitados
Publicidad
TOP acordes y tablaturas de Metallica


Estás en: Inicio > Letra M > Acordes y tablaturas de Metallica > Shoot me again
Shoot me again
de Metallica
Puntúa este acorde/tab:      
(0.1/5)
Reportar este acorde/tab
  Añadir a tus favoritos
  Imprimir
Dropped D and tuned down a step (Dropped C)

Intro
Riff 1
d------------------------------------------------------------
A------------------------------------------------------------
F------------------------------------------------------------
C------------------------------------------------------------
G--5^--5^--5^--5^--5^--5^--5^--5^--5^--5^--5^--5^------------
C--0---0---0---0---0---0---0---0---0---0---0---0-------------


Riff 2A (Guitar 1)
d------------------------------------------------------------
A------------------------------------------------------------
F------------------------------------------------------------
C------------------------------------------------------------
G--5^----5^----5^--5^-----5^----5^--5^-----5^----5^--5^------
C--0-----0-----0---0------0-----0---0------0-----0---0-------

Riff 2B (Guitar 2)
d------------------------------------------------------------
A------------------------------------------------------------
F------------------------------------------------------------
C------------------------------------------------------------
G--0m-0m-0m-0m-0m-0m-0m-0m-0m-0m-0m-0m-0m-0m-----------------
C--0m-0m-0m-0m-0m-0m-0m-0m-0m-0m-0m-0m-0m-0m-----------------


Riff 3
d------------------------------------------------------------
A------------------------------------------------------------
F------------------------------------------------------------
C----------------------1------------------------1------------
G--0m-0m---/5^--0m-0m--1----0m-0m---/5^--0m-0m--1------------
C--0m-0m--------0m-0m--1----0m-0m--------0m-0m--1------------


Verse 1A (Guitar 1)
d------------------------------------------------------------
A------------------------------------------------------------
F------------------------------------------------------------
C------------------------------------------------------------
G------------------------------------------------------------
C--0m--0m-0m--0m--0m--0m-0m--0m-0m--0m-0m--0m--1m--1^m--1m---

(continued)
d------------------------------------------------------------
A------------------------------------------------------------
F------------------------------------------------------------
C---------13-13-13-13-13-13-13-------------------------------
G---------13-13-13-13-13-13-13-------------------------------
C--1m--1/-13-13-13-13-13-13-13-------------------------------

Verse 1B (Guitar 2)
d------------------------------------------------------------
A------------------------------------------------------------
F--7-------10-------8----------------------------------------
C--x--------x-------x-----1-1-1-1-1-1-1----------------------
G--5--------8-------6-----1-1-1-1-1-1-1----------------------
C-------------------------1-1-1-1-1-1-1----------------------


Pre-Chorus
d------------------------------------------------------------
A------------------------------------------------------------
F------------------------------------------------------------
C--x-x---0---3---1-----1-2-3-----x-x---0---3---1-----1-2-3---
G--x-x---0---3---1-----1-2-3-----x-x---0---3---1-----1-2-3---
C--x-x---0---3---1-----1-2-3-----x-x---0---3---1-----1-2-3---


Chorus (palm muted)
d------------------------------------------------------------
A------------------------------------------------------------
F------------------------------------------------------------
C------------------------------------------------------------
G------------------------------5-5-5-5-5-5-5-5-5-5-5-5-5-----
C--0-0-0-0-0-0-0-0-0-0-0-0-0-0-0-0-0-0-0-0-0-0-0-0-0-0-0-----


Post-Chorus 1
d------------------------------------------------------------
A------------------------------------------------------------
F------------------------------------------------------------
C------------------------------------------------------------
G------------------------------------------------------------
C--0-0--x-0--x-0---3-3--x-3--x-3--1-1--x-1--x-1--/13-13-13---

(continued)
d------------------------------------------------------------
A------------------------------------------------------------
F------------------------------------------------------------
C------------------------------------------------------------
G------------------------------------------------------------
C--13-13-13-12/13-13-13-13-13-12/13-13-13-13-13--------------


Riff 4
d------------------------------------------------------------
A------------------------------------------------------------
F------------------------------------------------------------
C--0-0-------------0---0-0-------------0---------------------
G--0-0-5^-5^-5^-5^-0---0-0-5^-5^-5^-5^-0---------------------
C--0-0-0--0--0--0--0---0-0-0--0--0--0--0---------------------


Post-Chorus 2
d------------------------------------------------------------
A------------------------------------------------------------
F------------------------------------------------------------
C------------------------------------------------------------
G------------------------------------------------------------
C--0-0--x-0--0-0-0--x-0--0h3-3--x-3--0h3-3--x-3---1-1--x-1---

(continued)
d------------------------------------------------------------
A------------------------------------------------------------
F------------------------------------------------------------
C------------------------------------------------------------
G------------------------------------------------------------
C--1-1--x-1-/13-13-13-13-13-12/13-13-13-13-13-12/13-13-13-13-


Bridge 1
d------------------------------------------------------------
A------------------------------------------------------------
F------------------------------------------------------------
C------------------------------------------------------------
G--0m-0m--/5--0m-0m--/5--0m-0m--/5--0m-0m--/5----------------
C--0m-0m------0m-0m------0m-0m------0m-0m--------------------


Bridge 2
d------------------------------------------------------------
A------------------------------------------------------------
F------------------------------------------------------------
C--1-1-1-1-1-1-1-1-1-1-1-1-1-1-1-1-1-1-1-1-1-1-1-------------
G--1-1-1-1-1-1-1-1-1-1-1-1-1-1-1-1-1-1-1-1-1-1-1-------------
C--1-1-1-1-1-1-1-1-1-1-1-1-1-1-1-1-1-1-1-1-1-1-1-------------


Bridge 3 (palm muted, except for the last note)
d------------------------------------------------------------
A------------------------------------------------------------
F------------------------------------------------------------
C--------------------------------------------------0---------
G--0-5--0-5--0-5--0-5--0-5--0-5--0-5--0-5--0-5--0--0---------
C--0-0--0-0--0-0--0-0--0-0--0-0--0-0--0-0--0-0--0--0---------


Post-Chorus 3 (each hit 2 times)
d------------------------------------------------------------
A------------------------------------------------------------
F------------------------------------------------------------
C--0-0-0-0-0-0-0-0-0-0-0-0-0-0-0--3-3-3-3-3-3-3-3-3-3-3-3-3--
G--0-0-0-0-0-0-0-0-0-0-0-0-0-0-0--3-3-3-3-3-3-3-3-3-3-3-3-3--
C--0-0-0-0-0-0-0-0-0-0-0-0-0-0-0--3-3-3-3-3-3-3-3-3-3-3-3-3--

(continued)
d------------------------------------------------------------
A------------------------------------------------------------
F------------------------------------------------------------
C-----------------1--------1------1---/12h13-13--12h13-13----
G-----------1-1---1--1-1---1--1-1-1-1-/12h13-13--12h13-13----
C--3-3-3-3--1-1-x----1-1-x----1-1---1-/12h13-13--12h13-13----

(continued)
d------------------------------------------------------------
A------------------------------------------------------------
F------------------------------------------------------------
C-12h13-13--12h13-13--12h13-13--12h13-13--12h13-13--12h13-13-
G-12h13-13--12h13-13--12h13-13--12h13-13--12h13-13--12h13-13-
C-12h13-13--12h13-13--12h13-13--12h13-13--12h13-13--12h13-13-

Riff 5
d------------------------------------------------------------
A------------------------------------------------------------
F------------------------------------------------------------
C------------------------------------------------------------
G--0-0-5-5-0---0-0-5-5-0-------------------------------------
C--0-0-0-0-0---0-0-0-0-0-------------------------------------


Intro
Intro, Riff 1
Riff 2A, 2B
Riff 2B
Riff 2A, 2B
Riff 3
Verse 1A, 1B
Riff 3
Verse 1A, 1B
Pre-Chorus
Chorus
Post-Chorus 1
Riff 4
Post-Chorus 2
Riff 3
Verse 1A, 1B
Riff 3
Verse 1A, 1B
Pre-Chorus
Chorus
Post-Chorus 1
Riff 4
Post-Chorus 2
Riff 3
Intro
Riff 2A, 2B
Riff 2B
Riff 2A, 2B
Bridge 1
Bridge 2
Bridge 1
Bridge 2
Bridge 1
Riff 2A
Bridge 3
Bridge 2
Riff 2A
Post-Chorus 3
Riff 5
Post-Chorus 3
Riff 3
Intro		   
AcordesyTabs.com © 2008 Acordes y Tablaturas para guitarra. Tabs and Chords for guitar. Aviso Legal - Contacto
El uso de este sitio está sujeto a la aceptación de los términos y condiciones (33 usuarios online)