tablaturas, partituras y acordes para guitarra
Busca por banda/artista:
 
y/o título de la canción:
A B C D E F G H I J K L M N O P Q R S T U V W X Y Z 0 1 2 3 4 5 6 7 8 9 / Top 100 tabs
Categorías
Usuarios
usuario:
Darse de alta
password:
Artistas más visitados
Publicidad
TOP acordes y tablaturas de Os pedrero


Carol
de Os pedrero
Puntúa este acorde/tab:      
(0.3/5)
Reportar este acorde/tab
  Añadir a tus favoritos
  Imprimir
Legenda:   Slide decrescente
          / Slide crescente
          ~ Vibrato
          

Intro

e|--------------------------------------------------------|
B|--------------------------------------------------------|
G|--------------------------------------------------------|
D|------6-----6----7-7-7-7-7------6-----6----9-9-9-9-9--|
A|----7-----7---7--7-7-7-7-7----7-----7---7—-9-9-9-9-9--|
E|--0-----0--------5-5-5-5-5--0-----0--------7-7-7-7-7--|


e|-------------------------------------------------------|
B|-------------------------------------------------------|
G|-------------------------------------------------------|
D|------6-----6----2-2-2-2-2--9-9-9-9-6/7-7-7-2-2-2-2---|
A|----7-----7---7--0-0-0-0-0---9-9-9-9-6/7-7-7-2-2-2-2---|
E|--0-----0--------------------7-7-7-7-4/5-5-5-0-0-0-0---|


Riff 1

e|-------------------------------------------------------|
B|-------------------------------------------------------|
G|-------------------------------------------------------|
D|--2-2-2-2-2-2--7-7-7-6-7--2-2-2-2-2—2--9-9-9-8-9-------|
A|--2-2-2-2-2-2--7-7-7-6-7--2-2-2-2-2—2--9-9-9-8-9-------|
E|--0-0-0-0-0-0--5-5-5-4-5--0-0-0-0-0-0--7-7-7-6-7-------|


e|-------------------------------------------------------|
B|-------------------------------------------------------|
G|---------------2-2-2-2--1-2----------------------------|
D|--2-2-2-2-2-2--2-2-2-2--1-2--9-9-9-9--7-7-6-7—-2-2-2-2-|
A|--2-2-2-2-2-2--0-0-0-0--0-0--9-9-9-9--7-7-6-7--2-2-2-2-|
E|--0-0-0-0-0-0----------------7-7-7-7--5-5-4-5--0-0-0-0-|


Riff 2 ( O começo do verso )

e|-------------------------------------------------------|
B|-------------------------------------------------------|
G|-------------------------------------------------------|
D|--2-2-2-2-2-2--7-7-7-7-7-7--2-2-2-2-2—2--9-9-9-9-9-9---|
A|--2-2-2-2-2-2--7-7-7-7-7-7--2-2-2-2-2—2--9-9-9-9-9-9---|
E|--0-0-0-0-0-0--5-5-5-5-5-5--0-0-0-0-0-0--7-7-7-7-7-7---|


Riff 3 ( Verso e refrão )

“Carol, Carol, my new Carol...”

e|-------------------------------------------------------|
B|-------------------------------------------------------|
G|--9-9-9-9-9-9--2-2-2-2-2-2--------------9--9-----------|
D|--9-9-9-9-9-9--2-2-2-2-2-2--9--9--7--7--9--9--9--9-----|
A|--7-7-7-7-7-7--0-0-0-0-0-0--9--9--7--7--7--7--9--9-----|
E|----------------------------7--7--5--5--------7--7-----|


Solinho

e|-------------------------------------------------------|
B|--9-9-9-9-----7-------------------------7-7-7-9-9-9-9--|
G|----------9-9---9-8-9--9-9-9-9-9-9-8-9----------------|
D|-------------------------------------------------------|
A|-------------------------------------------------------|
E|-------------------------------------------------------|


e|-------------------------------------------------------|
B|-----10-10-10-10-9-10-12-12-12-10-9-10-----------------|
G|-9-9-----------------------------------9~--------------|
D|-------------------------------------------------------|
A|-------------------------------------------------------|
E|-------------------------------------------------------|


Riff 4

e|-------------------------------------------------------|
B|-------------------------------------------------------|
G|--2-2-2-2-2-2--4-4-4-4-4-4-----------------------------|
D|--2-2-2-2-2-2--4-4-4-4-4-4--6-6-6-6-6-6--7-7-7-7-7-7---|
A|--0-0-0-0-0-0--2-2-2-2-2-2--6-6-6-6-6-6--7-7-7-7-7-7---|
E|----------------------------4-4-4-4-4-4--5-5-5-5-5-5---|


e|-------------------------------------------------------|
B|-------------------------------------------------------|
G|-------------------------------------------------------|
D|--7-7-7-7-7-7--9-9-9-9-9-9-9-9-9-9-9-9-9-9-9-9-9-9-9---|
A|--7-7-7-7-7-7--9-9-9-9-9-9-9-9-9-9-9-9-9-9-9-9-9-9-9---|
E|--5-5-5-5-5-5--7-7-7-7-7-7-7-7-7-7-7-7-7-7-7-7-7-7-7---|


Ponte

e|------------------------|
B|------------------------|
G|------------------------|
D|-2-2-2-2-2--6--7--8--9--|
A|-2-2-2-2-2--6--7--8--9--|
E|-0-0-0-0-0--4--5--6--7--|


Ordem:

Intro
Riff 1
Riff 2
Riff 3 ( 5x )
Solinho ( durante o solinho a base toca o riff 1 )
Riff 4
Ponte
Riff 3 ( 4x )
Riff 1


Nota: A letra eh quase toda em embromation por isso fica difícil de
transcreve-la.		   
AcordesyTabs.com © 2008 Acordes y Tablaturas para guitarra. Tabs and Chords for guitar. Aviso Legal - Contacto
El uso de este sitio está sujeto a la aceptación de los términos y condiciones (26 usuarios online)