tablaturas, partituras y acordes para guitarra
Busca por banda/artista:
 
y/o título de la canción:
A B C D E F G H I J K L M N O P Q R S T U V W X Y Z 0 1 2 3 4 5 6 7 8 9 / Top 100 tabs
Categorías
Usuarios
usuario:
Darse de alta
password:
Artistas más visitados
Publicidad
TOP acordes y tablaturas de Jackson


Estás en: Inicio > Letra J > Acordes y tablaturas de Jackson > She's giving in
She's giving in
de Jackson
Puntúa este acorde/tab:      
(0.6/5)
Reportar este acorde/tab
  Añadir a tus favoritos
  Imprimir
Main Riff Guitar#1:
    Am		Dm
e|------0-------------1----
B|--------1---------3--3---
G|---2------2-----2------2-
D|--2--------2--0----------
A|-0-----------------------
E|-------------------------

Guitar#2 Verse Riff(only play the first part 
for the first few times):
		Dm
e|-------------|-1-11-1111-
B|---0-1---5p3-|-3-33-3333-
G|-2-----2-----|-2-22-2222-
D|-------------|-0-00-0000-
A|-------------|-----------
E|-------------|-----------

Chorus (both guitars):
e|------------------------
B|------------------------
G|------------------------ X2
D|-33-3-33-3-33-3-3-2-222-
A|-33-3-33-3-33-3-3-2-222-
E|-11-1-11-1-11-1-1-0-000-

e|------------------------
B|------------------------
G|-77-7-77-7-77-7-7-5-555-
D|-77-7-77-7-77-7-7-5-555-
A|-55-5-55-5-55-5-5-3-333-
E|------------------------

e|------------------------
B|------------------------
G|-77-7-77-7--------------
D|-77-7-77-7-2-2-2-2-2-2--
A|-55-5-55-5-2-2-2-2-2-2--
E|-----------0-0-0-0-0-0--

Bridge(both guitars):
e|--------------
B|--------------
G|---7-9----7-9-
D|-7-7-9--7-7-9-
A|-7-5-7--7-5-7-
E|-5------5-----

e|-----------------
B|-----------------
G|-5*-7*-9*-10>----
D|-5*-7*-9*-10>-2>-
A|-3*-5*-7*-8>--2>-
E|--------------0>-

*=play 16 times >=play 8 times

Solo Guitar#2 (Guitar#1 plays main riff):
e|---------------------------
B|---------------------------
G|---------------------------
D|---5------5^---7^-7^-7777--
A|-7---8--7----8-------------
E|---------------------------

^=bend note		   
AcordesyTabs.com © 2008 Acordes y Tablaturas para guitarra. Tabs and Chords for guitar. Aviso Legal - Contacto
El uso de este sitio está sujeto a la aceptación de los términos y condiciones (30 usuarios online)