tablaturas, partituras y acordes para guitarra
Busca por banda/artista:
 
y/o título de la canción:
A B C D E F G H I J K L M N O P Q R S T U V W X Y Z 0 1 2 3 4 5 6 7 8 9 / Top 100 tabs
Categorías
Usuarios
usuario:
Darse de alta
password:
Artistas más visitados
Publicidad
TOP acordes y tablaturas de Jackson


Estás en: Inicio > Letra J > Acordes y tablaturas de Jackson > Far from here
Far from here
de Jackson
Puntúa este acorde/tab:      
(0.8/5)
Reportar este acorde/tab
  Añadir a tus favoritos
  Imprimir
***INTRO/CHORUS***

guitar 1
e-----------------------------------------------------------------
B-----------------------------------------------------------------
G-4-4-4-4-4-4-4-4-4-4-4-4-4-4-4-4-4-4-4-4-4-4-4-4-----------------
D-4-4-4-4-4-4-4-4-4-4-4-4-4-4-4-4-4-4-4-4-4-4-4-4-2-2-2-2-2-2-2-2-
A-2-2-2-2-2-2-2-2-2-2-2-2-2-2-2-2-2-2-2-2-2-2-2-2-2-2-2-2-2-2-2-2-
E-------------------------------------------------0-0-0-0-0-0-0-0-

guitar 2
e-----------------------------------------------------------------
B-----------------------------------------------------------------
G-4-4-4/6-9-8----4-4-4/6-9-8----4-4-4/6-9-8---------------------
D-x-x-x/x-x-x----x-x-x/x-x-xx----x-x-x/x-x-x-----2-2-2-2-2-2-2-2-
A-2-2-2/4-7-6----2-2-2/4-7-6----2-2-2/4-7-6-----2-2-2-2-2-2-2-2-
E-------------------------------------------------0-0-0-0-0-0-0-0-

***Verse***
                                               
both guitars
e-----------------------------------------------------------------
B-----------------------------------------------------------------
G-4--44--4--444--4--44--4--444------------------------------------
D-4--44--4--444--4--44--4--444---6-6-6-6-6-6-6-6--2-2-2-2-2-2-2-2-
A-2--22--2--222--2--22--2--222---6-6-6-6-6-6-6-6--2-2-2-2-2-2-2-2-
E--------------------------------4-4-4-4-4-4-4-4--0-0-0-0-0-0-0-0-

***Pre-Chorus***

both guitars
e-----------------------------------------------------------------
B-----------------------------------------------------------------
G-------------------------------------------------4-4-4-4-4-4-4-4-
D-4-4-4-4-4-4-4-4-4-4-4-4-4-4-4-4-2-2-2-2-2-2-2-2-4-4-4-4-4-4-4-4-
A-4-4-4-4-4-4-4-4-4-4-4-4-4-4-4-4-2-2-2-2-2-2-2-2-2-2-2-2-2-2-2-2-
E-2-2-2-2-2-2-2-2-2-2-2-2-2-2-2-2-0-0-0-0-0-0-0-0-----------------

e-----------------------------------------------------------------
B-----------------------------------------------------------------
G-----------------------------------------------------------------
D-4-4-4-4-4-4-4-4-4-4-4-4-4-4-4-4-2-2-2-2-2-2-2-2-4-4-4-4-4-4-4-4-
A-4-4-4-4-4-4-4-4-4-4-4-4-4-4-4-4-2-2-2-2-2-2-2-2-4-4-4-4-4-4-4-4-
E-2-2-2-2-2-2-2-2-2-2-2-2-2-2-2-2-0-0-0-0-0-0-0-0-2-2-2-2-2-2-2-2-

***2nd Chorus(+ part)***

e--------12-------
B-12-----12-------
G--x------x-------
D--9....-(9)..----
A-----------------
E-----------------

***Interlude***

e------------------------------------------------------------------------
B------------------------------------------------------------------------
G-4/6-6--6-6-6-4/6-6--6-6-6-4/6-6--6-6-6-9-9--8--6--4-6/8-8-8-999-9-8--6-
D-x/x-x--x-x-x-x/x-x--x-x-x-x/x-x--x-x-x-x-x--x--x--x-x/x-x-x-xxx-x-x--x-
A-2/4-4--4-4-4-2/2-2--2-2-2-2/4-4--4-4-4-7-7--6--4--2-4/6-6-6-777-7-6--4-
E------------------------------------------------------------------------

e------------------------------------------------------------------------
B------------------------------------------------------------------------
G-4/6-6--6-6-6-4/6-6--6-6-6-4/6-6--6-6-6-9-9--8--6--4-6/8-8-8-991111-11-9
D-x/x-x--x-x-x-x/x-x--x-x-x-x/x-x--x-x-x-x-x--x--x--x-x/x-x-x-xxxx-x--x-x
A-2/4-4--4-4-4-2/2-2--2-2-2-2/4-4--4-4-4-7-7--6--4--2-4/6-6-6-77-9-9--9-7
E------------------------------------------------------------------------

e------------------------------------------------------------------------
B------------------------------------------------------------------------
G-4/6-6--6-6-6-4/6-6--6-6-6-4/6-6--6-6-6-9-9--8--6--4-6/8-8-8-999-9-8--6-
D-x/x-x--x-x-x-x/x-x--x-x-x-x/x-x--x-x-x-x-x--x--x--x-x/x-x-x-xxx-x-x--x-
A-2/4-4--4-4-4-2/2-2--2-2-2-2/4-4--4-4-4-7-7--6--4--2-4/6-6-6-777-7-6--4-
E------------------------------------------------------------------------

e------------------------------------------------------------------------
B------------------------------------------------------------------------
G-4/6-6--6-6-6-4/6-6--6-6-6-4/6-6--6-6-6-9-9--8--6--4-6/1111111111111111-
D-x/x-x--x-x-x-x/x-x--x-x-x-x/x-x--x-x-x-x-x--x--x--x-x/-x-x-x-x-x-x-x-x-
A-2/4-4--4-4-4-2/2-2--2-2-2-2/4-4--4-4-4-7-7--6--4--2-4/-9-9-9-9-9-9-9-9-
E------------------------------------------------------------------------     


end!

keys,

x = muted string
()= ghost note
/ = slide up
 = slide down
..= played several times		   
AcordesyTabs.com © 2008 Acordes y Tablaturas para guitarra. Tabs and Chords for guitar. Aviso Legal - Contacto
El uso de este sitio está sujeto a la aceptación de los términos y condiciones (19 usuarios online)